  0
SECTION
  2
HEADER
  9
$ACADVER
  1
AC1018
  9
$ACADMAINTVER
 70
   104
  9
$DWGCODEPAGE
  3
ANSI_1252
  9
$LASTSAVEDBY
  1
Dennis
  9
$INSBASE
 10
0.0
 20
0.0
 30
0.0
  9
$EXTMIN
 10
-789.7502324426823
 20
1470.555559619177
 30
-1200.0
  9
$EXTMAX
 10
791.2417003545706
 20
2407.040511309782
 30
0.0
  9
$LIMMIN
 10
5738.196265089202
 20
22845.83300451853
  9
$LIMMAX
 10
53967.82076643742
 20
53381.89548560028
  9
$ORTHOMODE
 70
     0
  9
$REGENMODE
 70
     1
  9
$FILLMODE
 70
     1
  9
$QTEXTMODE
 70
     0
  9
$MIRRTEXT
 70
     0
  9
$LTSCALE
 40
1000.0
  9
$ATTMODE
 70
     1
  9
$TEXTSIZE
 40
20.0
  9
$TRACEWID
 40
300.0
  9
$TEXTSTYLE
  7
ROMANS
  9
$CLAYER
  8
Border
  9
$CELTYPE
  6
BYLAYER
  9
$CECOLOR
 62
   256
  9
$CELTSCALE
 40
1.0
  9
$DISPSILH
 70
     0
  9
$DIMSCALE
 40
1.0
  9
$DIMASZ
 40
20.0
  9
$DIMEXO
 40
0.0
  9
$DIMDLI
 40
10.0
  9
$DIMRND
 40
0.0
  9
$DIMDLE
 40
10.0
  9
$DIMEXE
 40
10.0
  9
$DIMTP
 40
0.0
  9
$DIMTM
 40
0.0
  9
$DIMTXT
 40
20.0
  9
$DIMCEN
 40
10.0
  9
$DIMTSZ
 40
0.0
  9
$DIMTOL
 70
     0
  9
$DIMLIM
 70
     0
  9
$DIMTIH
 70
     0
  9
$DIMTOH
 70
     0
  9
$DIMSE1
 70
     0
  9
$DIMSE2
 70
     0
  9
$DIMTAD
 70
     1
  9
$DIMZIN
 70
     8
  9
$DIMBLK
  1

  9
$DIMASO
 70
     1
  9
$DIMSHO
 70
     1
  9
$DIMPOST
  1

  9
$DIMAPOST
  1

  9
$DIMALT
 70
     0
  9
$DIMALTD
 70
     4
  9
$DIMALTF
 40
0.0394
  9
$DIMLFAC
 40
1.0
  9
$DIMTOFL
 70
     1
  9
$DIMTVP
 40
0.0
  9
$DIMTIX
 70
     0
  9
$DIMSOXD
 70
     0
  9
$DIMSAH
 70
     1
  9
$DIMBLK1
  1
OBLIQUE
  9
$DIMBLK2
  1
OBLIQUE
  9
$DIMSTYLE
  2
HBD10
  9
$DIMCLRD
 70
     7
  9
$DIMCLRE
 70
     7
  9
$DIMCLRT
 70
     7
  9
$DIMTFAC
 40
1.0
  9
$DIMGAP
 40
10.0
  9
$DIMJUST
 70
     0
  9
$DIMSD1
 70
     0
  9
$DIMSD2
 70
     0
  9
$DIMTOLJ
 70
     1
  9
$DIMTZIN
 70
     0
  9
$DIMALTZ
 70
     0
  9
$DIMALTTZ
 70
     0
  9
$DIMUPT
 70
     0
  9
$DIMDEC
 70
     0
  9
$DIMTDEC
 70
     2
  9
$DIMALTU
 70
     8
  9
$DIMALTTD
 70
     4
  9
$DIMTXSTY
  7
ROMANS
  9
$DIMAUNIT
 70
     0
  9
$DIMADEC
 70
     0
  9
$DIMALTRND
 40
0.0
  9
$DIMAZIN
 70
     0
  9
$DIMDSEP
 70
    46
  9
$DIMATFIT
 70
     3
  9
$DIMFRAC
 70
     0
  9
$DIMLDRBLK
  1
OBLIQUE
  9
$DIMLUNIT
 70
     2
  9
$DIMLWD
 70
    -2
  9
$DIMLWE
 70
    -2
  9
$DIMTMOVE
 70
     2
  9
$LUNITS
 70
     2
  9
$LUPREC
 70
     0
  9
$SKETCHINC
 40
100.0
  9
$FILLETRAD
 40
0.0
  9
$AUNITS
 70
     0
  9
$AUPREC
 70
     1
  9
$MENU
  1
ACAD
  9
$ELEVATION
 40
0.0
  9
$PELEVATION
 40
0.0
  9
$THICKNESS
 40
0.0
  9
$LIMCHECK
 70
     0
  9
$CHAMFERA
 40
0.0
  9
$CHAMFERB
 40
0.0
  9
$CHAMFERC
 40
0.0
  9
$CHAMFERD
 40
0.0
  9
$SKPOLY
 70
     1
  9
$TDCREATE
 40
2452451.588192083
  9
$TDUCREATE
 40
2452451.088192084
  9
$TDUPDATE
 40
2456471.616225996
  9
$TDUUPDATE
 40
2456471.116225996
  9
$TDINDWG
 40
0.2354609144
  9
$TDUSRTIMER
 40
0.2354609144
  9
$USRTIMER
 70
     1
  9
$ANGBASE
 50
0.0
  9
$ANGDIR
 70
     0
  9
$PDMODE
 70
     0
  9
$PDSIZE
 40
1.0
  9
$PLINEWID
 40
0.0
  9
$SPLFRAME
 70
     0
  9
$SPLINETYPE
 70
     6
  9
$SPLINESEGS
 70
     8
  9
$HANDSEED
  5
1654
  9
$SURFTAB1
 70
     9
  9
$SURFTAB2
 70
     6
  9
$SURFTYPE
 70
     6
  9
$SURFU
 70
     6
  9
$SURFV
 70
     6
  9
$UCSBASE
  2

  9
$UCSNAME
  2

  9
$UCSORG
 10
0.0
 20
0.0
 30
0.0
  9
$UCSXDIR
 10
1.0
 20
0.0
 30
0.0
  9
$UCSYDIR
 10
0.0
 20
1.0
 30
0.0
  9
$UCSORTHOREF
  2

  9
$UCSORTHOVIEW
 70
     0
  9
$UCSORGTOP
 10
0.0
 20
0.0
 30
0.0
  9
$UCSORGBOTTOM
 10
0.0
 20
0.0
 30
0.0
  9
$UCSORGLEFT
 10
0.0
 20
0.0
 30
0.0
  9
$UCSORGRIGHT
 10
0.0
 20
0.0
 30
0.0
  9
$UCSORGFRONT
 10
0.0
 20
0.0
 30
0.0
  9
$UCSORGBACK
 10
0.0
 20
0.0
 30
0.0
  9
$PUCSBASE
  2

  9
$PUCSNAME
  2

  9
$PUCSORG
 10
0.0
 20
0.0
 30
0.0
  9
$PUCSXDIR
 10
1.0
 20
0.0
 30
0.0
  9
$PUCSYDIR
 10
0.0
 20
1.0
 30
0.0
  9
$PUCSORTHOREF
  2

  9
$PUCSORTHOVIEW
 70
     0
  9
$PUCSORGTOP
 10
0.0
 20
0.0
 30
0.0
  9
$PUCSORGBOTTOM
 10
0.0
 20
0.0
 30
0.0
  9
$PUCSORGLEFT
 10
0.0
 20
0.0
 30
0.0
  9
$PUCSORGRIGHT
 10
0.0
 20
0.0
 30
0.0
  9
$PUCSORGFRONT
 10
0.0
 20
0.0
 30
0.0
  9
$PUCSORGBACK
 10
0.0
 20
0.0
 30
0.0
  9
$USERI1
 70
    11
  9
$USERI2
 70
   110
  9
$USERI3
 70
     1
  9
$USERI4
 70
   250
  9
$USERI5
 70
   280
  9
$USERR1
 40
100.0
  9
$USERR2
 40
450.0
  9
$USERR3
 40
1.0
  9
$USERR4
 40
0.0
  9
$USERR5
 40
0.0
  9
$WORLDVIEW
 70
     0
  9
$SHADEDGE
 70
     3
  9
$SHADEDIF
 70
    70
  9
$TILEMODE
 70
     0
  9
$MAXACTVP
 70
    16
  9
$PINSBASE
 10
0.0
 20
0.0
 30
0.0
  9
$PLIMCHECK
 70
     0
  9
$PEXTMIN
 10
736.6999137716346
 20
-163.3263132893831
 30
-0.0000000000000058
  9
$PEXTMAX
 10
926.8890902799771
 20
113.3083625100482
 30
0.0000000000000104
  9
$PLIMMIN
 10
725.4810417469614
 20
-172.8571580820511
  9
$PLIMMAX
 10
935.45436938368
 20
124.1746717519333
  9
$UNITMODE
 70
     0
  9
$VISRETAIN
 70
     0
  9
$PLINEGEN
 70
     0
  9
$PSLTSCALE
 70
     0
  9
$TREEDEPTH
 70
     0
  9
$CMLSTYLE
  2
STANDARD
  9
$CMLJUST
 70
     0
  9
$CMLSCALE
 40
1.0
  9
$PROXYGRAPHICS
 70
     1
  9
$MEASUREMENT
 70
     0
  9
$CELWEIGHT
370
    -1
  9
$ENDCAPS
280
     0
  9
$JOINSTYLE
280
     0
  9
$LWDISPLAY
290
     1
  9
$INSUNITS
 70
     0
  9
$HYPERLINKBASE
  1

  9
$STYLESHEET
  1

  9
$XEDIT
290
     1
  9
$CEPSNTYPE
380
     0
  9
$PSTYLEMODE
290
     1
  9
$FINGERPRINTGUID
  2
{5A3FC32A-FC54-4DAD-82D6-3D422C96A59B}
  9
$VERSIONGUID
  2
{77915342-8F4A-4B1B-B696-26998613703D}
  9
$EXTNAMES
290
     1
  9
$PSVPSCALE
 40
0.0
  9
$OLESTARTUP
290
     0
  9
$SORTENTS
280
   127
  9
$INDEXCTL
280
     0
  9
$HIDETEXT
280
     0
  9
$XCLIPFRAME
290
     0
  9
$HALOGAP
280
     0
  9
$OBSCOLOR
 70
   257
  9
$OBSLTYPE
280
     0
  9
$INTERSECTIONDISPLAY
280
     0
  9
$INTERSECTIONCOLOR
 70
   257
  9
$DIMASSOC
280
     2
  9
$PROJECTNAME
  1

  0
ENDSEC
  0
SECTION
  2
CLASSES
  0
CLASS
  1
DICTIONARYVAR
  2
AcDbDictionaryVar
  3
ObjectDBX Classes
 90
        0
 91
       10
280
     0
281
     0
  0
CLASS
  1
RASTERVARIABLES
  2
AcDbRasterVariables
  3
ISM
 90
        0
 91
        1
280
     0
281
     0
  0
CLASS
  1
ACDBDICTIONARYWDFLT
  2
AcDbDictionaryWithDefault
  3
ObjectDBX Classes
 90
        0
 91
        1
280
     0
281
     0
  0
CLASS
  1
MATERIAL
  2
AcDbMaterial
  3
ObjectDBX Classes
 90
     1153
 91
        3
280
     0
281
     0
  0
CLASS
  1
VISUALSTYLE
  2
AcDbVisualStyle
  3
ObjectDBX Classes
 90
     4095
 91
       26
280
     0
281
     0
  0
CLASS
  1
TABLESTYLE
  2
AcDbTableStyle
  3
ObjectDBX Classes
 90
     4095
 91
        1
280
     0
281
     0
  0
CLASS
  1
SCALE
  2
AcDbScale
  3
ObjectDBX Classes
 90
     1153
 91
       33
280
     0
281
     0
  0
CLASS
  1
MLEADERSTYLE
  2
AcDbMLeaderStyle
  3
ACDB_MLEADERSTYLE_CLASS
 90
     4095
 91
        1
280
     0
281
     0
  0
CLASS
  1
CELLSTYLEMAP
  2
AcDbCellStyleMap
  3
ObjectDBX Classes
 90
     1152
 91
        4
280
     0
281
     0
  0
CLASS
  1
IMAGE
  2
AcDbRasterImage
  3
ISM
 90
     2175
 91
        2
280
     0
281
     1
  0
CLASS
  1
IMAGEDEF_REACTOR
  2
AcDbRasterImageDefReactor
  3
ISM
 90
        1
 91
        2
280
     0
281
     0
  0
CLASS
  1
SORTENTSTABLE
  2
AcDbSortentsTable
  3
ObjectDBX Classes
 90
        0
 91
        3
280
     0
281
     0
  0
CLASS
  1
IMAGEDEF
  2
AcDbRasterImageDef
  3
ISM
 90
        0
 91
        3
280
     0
281
     0
  0
CLASS
  1
AEC_REFEDIT_STATUS_TRACKER
  2
AecDbRefEditStatusTracker
  3
AecArchBase50|Product Desc: Autodesk Architectural Desktop 2007 |Company: Autodesk,Inc. |WEB Address: www.autodesk.com
 90
      129
 91
        0
280
     0
281
     0
  0
CLASS
  1
NPOCOLLECTION
  2
AcDbImpNonPersistentObjectsCollection
  3
ObjectDBX Classes
 90
     1153
 91
        0
280
     0
281
     0
  0
CLASS
  1
ACDBSECTIONVIEWSTYLE
  2
AcDbSectionViewStyle
  3
ObjectDBX Classes
 90
     1025
 91
        1
280
     0
281
     0
  0
CLASS
  1
ACDBDETAILVIEWSTYLE
  2
AcDbDetailViewStyle
  3
ObjectDBX Classes
 90
     1025
 91
        1
280
     0
281
     0
  0
ENDSEC
  0
SECTION
  2
TABLES
  0
TABLE
  2
VPORT
  5
6A5
102
{ACAD_XDICTIONARY
360
124D
102
}
330
0
100
AcDbSymbolTable
 70
     1
  0
VPORT
  5
1035
330
6A5
100
AcDbSymbolTableRecord
100
AcDbViewportTableRecord
  2
*Active
 70
     0
 10
0.0
 20
0.0
 11
1.0
 21
1.0
 12
-23302.48081904401
 22
-32332.96291824457
 13
0.0
 23
0.0
 14
1.0
 24
1.0
 15
1900.0
 25
1900.0
 16
0.0
 26
0.0
 36
1.0
 17
23187.54216236222
 27
34067.94128341666
 37
1200.0
 40
1551.300078920045
 41
1.507482993197278
 42
50.0
 43
0.0
 44
0.0
 50
0.0
 51
0.0
 71
     0
 72
 20000
 73
     1
 74
     0
 75
     0
 76
     0
 77
     0
 78
     1
281
     0
 65
     1
110
0.0
120
0.0
130
0.0
111
1.0
121
0.0
131
0.0
112
0.0
122
1.0
132
0.0
 79
     0
146
0.0
  0
ENDTAB
  0
TABLE
  2
LTYPE
  5
6A0
330
0
100
AcDbSymbolTable
 70
     4
  0
LTYPE
  5
6A1
330
6A0
100
AcDbSymbolTableRecord
100
AcDbLinetypeTableRecord
  2
BYBLOCK
 70
     0
  3

 72
    65
 73
     0
 40
0.0
  0
LTYPE
  5
6A2
330
6A0
100
AcDbSymbolTableRecord
100
AcDbLinetypeTableRecord
  2
BYLAYER
 70
     0
  3

 72
    65
 73
     0
 40
0.0
  0
LTYPE
  5
5
330
6A0
100
AcDbSymbolTableRecord
100
AcDbLinetypeTableRecord
  2
CONTINUOUS
 70
     0
  3
Solid line
 72
    65
 73
     0
 40
0.0
  0
LTYPE
  5
128
330
6A0
100
AcDbSymbolTableRecord
100
AcDbLinetypeTableRecord
  2
HIDDEN
 70
     0
  3
Hidden __ __ __ __ __ __ __ __ __ __ __ __ __ _
 72
    65
 73
     2
 40
0.375
 49
0.25
 74
     0
 49
-0.125
 74
     0
  0
LTYPE
  5
12C
330
6A0
100
AcDbSymbolTableRecord
100
AcDbLinetypeTableRecord
  2
HIDDEN2
 70
     0
  3
_ _ _ _ _ _ _ _ _ _ _ _ _ _ _ _ _ _ _ _ _ _ _ _
 72
    65
 73
     2
 40
0.1875
 49
0.125
 74
     0
 49
-0.0625
 74
     0
  0
LTYPE
  5
1531
330
6A0
100
AcDbSymbolTableRecord
100
AcDbLinetypeTableRecord
  2
PHANTOM2
 70
     0
  3
Phantom (.5x) ___ _ _ ___ _ _ ___ _ _ ___ _ _
 72
    65
 73
     6
 40
1.25
 49
0.625
 74
     0
 49
-0.125
 74
     0
 49
0.125
 74
     0
 49
-0.125
 74
     0
 49
0.125
 74
     0
 49
-0.125
 74
     0
  0
ENDTAB
  0
TABLE
  2
LAYER
  5
69D
102
{ACAD_XDICTIONARY
360
C14
102
}
330
0
100
AcDbSymbolTable
 70
    10
  0
LAYER
  5
1A6
102
{ACAD_XDICTIONARY
360
123A
102
}
330
69D
100
AcDbSymbolTableRecord
100
AcDbLayerTableRecord
  2
0
 70
     0
 62
     7
  6
CONTINUOUS
370
    -3
390
6CD
  0
LAYER
  5
69A
330
69D
100
AcDbSymbolTableRecord
100
AcDbLayerTableRecord
  2
DEFPOINTS
 70
     0
 62
     7
  6
CONTINUOUS
290
     0
370
    -3
390
6CD
  0
LAYER
  5
4
102
{ACAD_XDICTIONARY
360
123C
102
}
330
69D
100
AcDbSymbolTableRecord
100
AcDbLayerTableRecord
  2
HB_PANELS
 70
     0
 62
     1
  6
CONTINUOUS
370
    -3
390
6CD
  0
LAYER
  5
122
102
{ACAD_XDICTIONARY
360
1240
102
}
330
69D
100
AcDbSymbolTableRecord
100
AcDbLayerTableRecord
  2
HB_TEXT
 70
     1
 62
     7
  6
CONTINUOUS
370
    -3
390
6CD
  0
LAYER
  5
6EB
102
{ACAD_XDICTIONARY
360
1242
102
}
330
69D
100
AcDbSymbolTableRecord
100
AcDbLayerTableRecord
  2
HB_XDET_TEXT
 70
     0
 62
     7
  6
CONTINUOUS
370
    -3
390
6CD
  0
LAYER
  5
6EF
102
{ACAD_XDICTIONARY
360
1244
102
}
330
69D
100
AcDbSymbolTableRecord
100
AcDbLayerTableRecord
  2
HB_DIMS
 70
     0
 62
     7
  6
CONTINUOUS
370
    -3
390
6CD
  0
LAYER
  5
1293
330
69D
100
AcDbSymbolTableRecord
100
AcDbLayerTableRecord
  2
Border
 70
     0
 62
     7
  6
CONTINUOUS
370
    -3
390
6CD
1001
AcAecLayerStandard
1000

1000

  0
LAYER
  5
129B
102
{ACAD_XDICTIONARY
360
129C
102
}
330
69D
100
AcDbSymbolTableRecord
100
AcDbLayerTableRecord
  2
3
 70
     0
 62
     2
  6
CONTINUOUS
370
    -3
390
6CD
1001
RAK
1000
{ACET-LAYISO
1070
     0
1070
     2
1000
CONTINUOUS
1070
     1
1071
       -3
1071
        1
1005
0
1000
ACET-LAYISO}
  0
LAYER
  5
129D
102
{ACAD_XDICTIONARY
360
129E
102
}
330
69D
100
AcDbSymbolTableRecord
100
AcDbLayerTableRecord
  2
Title block
 70
     0
 62
     7
  6
CONTINUOUS
370
    80
390
6CD
  0
LAYER
  5
1546
102
{ACAD_XDICTIONARY
360
1547
102
}
330
69D
100
AcDbSymbolTableRecord
100
AcDbLayerTableRecord
  2
Text
 70
     0
 62
     7
  6
CONTINUOUS
370
    15
390
6CD
1001
RAK
1000
{ACET-LAYISO
1070
     0
1070
     7
1000
CONTINUOUS
1071
       -3
1071
        1
1005
6CD
1000
ACET-LAYISO}
  0
ENDTAB
  0
TABLE
  2
STYLE
  5
69E
330
0
100
AcDbSymbolTable
 70
     9
  0
STYLE
  5
69F
330
69E
100
AcDbSymbolTableRecord
100
AcDbTextStyleTableRecord
  2
STANDARD
 70
     0
 40
0.0
 41
1.0
 50
0.0
 71
     0
 42
150.0
  3
TIMES.TTF
  4

1001
ACAD
1000
Times New Roman
1071
       18
  0
STYLE
  5
17A
330
69E
100
AcDbSymbolTableRecord
100
AcDbTextStyleTableRecord
  2
ROMANS
 70
     0
 40
0.0
 41
1.0
 50
0.0
 71
     0
 42
20.0
  3
romans.shx
  4

  0
STYLE
  5
123
330
69E
100
AcDbSymbolTableRecord
100
AcDbTextStyleTableRecord
  2
ARIAL
 70
     0
 40
0.0
 41
1.199999999999999
 50
0.0
 71
     0
 42
300.0
  3
ARIAL.TTF
  4

1001
ACAD
1000
Arial
1071
       34
  0
STYLE
  5
12A0
330
69E
100
AcDbSymbolTableRecord
100
AcDbTextStyleTableRecord
  2
Title block
 70
     0
 40
2.5
 41
1.0
 50
0.0
 71
     0
 42
2.5
  3
TIMES.TTF
  4

1001
ACAD
1000
Times New Roman
1071
       18
  0
STYLE
  5
1548
330
69E
100
AcDbSymbolTableRecord
100
AcDbTextStyleTableRecord
  2
1
 70
     0
 40
0.0
 41
1.0
 50
0.0
 71
     0
 42
0.2
  3
swiss.ttf
  4

1001
ACAD
1000
Swis721 BT
1071
       34
  0
STYLE
  5
1549
330
69E
100
AcDbSymbolTableRecord
100
AcDbTextStyleTableRecord
  2
Brochure50
 70
     0
 40
50.0
 41
1.0
 50
4.0
 71
     0
 42
50.0
  3
CALIST.TTF
  4

1001
ACAD
1000
Calisto MT
1071
       18
  0
STYLE
  5
154A
330
69E
100
AcDbSymbolTableRecord
100
AcDbTextStyleTableRecord
  2
Titles
 70
     0
 40
4.0
 41
1.0
 50
0.0
 71
     0
 42
4.0
  3
timesbd.ttf
  4

1001
ACAD
1000
Times New Roman
1071
 33554450
  0
ENDTAB
  0
TABLE
  2
VIEW
  5
6A3
330
0
100
AcDbSymbolTable
 70
     1
  0
ENDTAB
  0
TABLE
  2
UCS
  5
6A4
330
0
100
AcDbSymbolTable
 70
     0
  0
ENDTAB
  0
TABLE
  2
APPID
  5
6A7
330
0
100
AcDbSymbolTable
 70
    17
  0
APPID
  5
124
330
6A7
100
AcDbSymbolTableRecord
100
AcDbRegAppTableRecord
  2
ACAD
 70
     0
  0
APPID
  5
1088
330
6A7
100
AcDbSymbolTableRecord
100
AcDbRegAppTableRecord
  2
ACAD_MLEADERVER
 70
     0
  0
APPID
  5
126F
330
6A7
100
AcDbSymbolTableRecord
100
AcDbRegAppTableRecord
  2
ACAD_EXEMPT_FROM_CAD_STANDARDS
 70
     0
  0
APPID
  5
1294
330
6A7
100
AcDbSymbolTableRecord
100
AcDbRegAppTableRecord
  2
AcAecLayerStandard
 70
     0
  0
APPID
  5
12A2
330
6A7
100
AcDbSymbolTableRecord
100
AcDbRegAppTableRecord
  2
AcadAnnoPO
 70
     0
  0
APPID
  5
12A3
330
6A7
100
AcDbSymbolTableRecord
100
AcDbRegAppTableRecord
  2
AcadAnnotative
 70
     0
  0
APPID
  5
12A4
330
6A7
100
AcDbSymbolTableRecord
100
AcDbRegAppTableRecord
  2
ACAD_DSTYLE_DIMJAG
 70
     0
  0
APPID
  5
12A5
330
6A7
100
AcDbSymbolTableRecord
100
AcDbRegAppTableRecord
  2
ACAD_DSTYLE_DIMTALN
 70
     0
  0
APPID
  5
12A6
330
6A7
100
AcDbSymbolTableRecord
100
AcDbRegAppTableRecord
  2
ACAD_PSEXT
 70
     0
  0
APPID
  5
12A7
330
6A7
100
AcDbSymbolTableRecord
100
AcDbRegAppTableRecord
  2
PROGE_PRINT_SETTINGS
 70
     0
  0
APPID
  5
12A8
330
6A7
100
AcDbSymbolTableRecord
100
AcDbRegAppTableRecord
  2
PCAD_LAYOUT
 70
     0
  0
APPID
  5
12A9
330
6A7
100
AcDbSymbolTableRecord
100
AcDbRegAppTableRecord
  2
RAK
 70
     0
  0
APPID
  5
12AA
330
6A7
100
AcDbSymbolTableRecord
100
AcDbRegAppTableRecord
  2
ACAD_DSTYLE_DIM_EXT1_LINETYPE
 70
     0
  0
APPID
  5
12AB
330
6A7
100
AcDbSymbolTableRecord
100
AcDbRegAppTableRecord
  2
ACAD_DSTYLE_DIM_EXT2_LINETYPE
 70
     0
  0
APPID
  5
12AC
330
6A7
100
AcDbSymbolTableRecord
100
AcDbRegAppTableRecord
  2
ACAD_DSTYLE_DIM_LINETYPE
 70
     0
  0
APPID
  5
12AD
330
6A7
100
AcDbSymbolTableRecord
100
AcDbRegAppTableRecord
  2
AcDbAttr
 70
     0
  0
APPID
  5
154B
330
6A7
100
AcDbSymbolTableRecord
100
AcDbRegAppTableRecord
  2
ACAD_NAV_VCDISPLAY
 70
     0
  0
ENDTAB
  0
TABLE
  2
DIMSTYLE
  5
6A8
330
0
100
AcDbSymbolTable
 70
     4
100
AcDbDimStyleTable
 71
     1
340
6AE
  0
DIMSTYLE
105
6AE
330
6A8
100
AcDbSymbolTableRecord
100
AcDbDimStyleTableRecord
  2
HBD10
 70
     0
 41
20.0
 42
0.0
 43
10.0
 44
10.0
 46
10.0
 73
     0
 74
     0
 77
     1
 78
     8
140
20.0
141
10.0
143
0.0394
147
10.0
171
     4
172
     1
173
     1
176
     7
177
     7
178
     7
271
     0
272
     2
273
     8
274
     4
279
     2
340
17A
341
52
343
52
344
52
  0
DIMSTYLE
105
6F7
330
6A8
100
AcDbSymbolTableRecord
100
AcDbDimStyleTableRecord
  2
STANDARD
 70
     0
340
69F
  0
ENDTAB
  0
TABLE
  2
BLOCK_RECORD
  5
1
330
0
100
AcDbSymbolTable
 70
     6
  0
BLOCK_RECORD
  5
2
102
{ACAD_XDICTIONARY
360
1428
102
}
330
1
100
AcDbSymbolTableRecord
100
AcDbBlockTableRecord
  2
*MODEL_SPACE
340
6D0
  0
BLOCK_RECORD
  5
1A8
330
1
100
AcDbSymbolTableRecord
100
AcDbBlockTableRecord
  2
*PAPER_SPACE
340
6D1
  0
BLOCK_RECORD
  5
6B1
330
1
100
AcDbSymbolTableRecord
100
AcDbBlockTableRecord
  2
_OBLIQUE
340
0
  0
BLOCK_RECORD
  5
12AE
102
{ACAD_XDICTIONARY
360
12C5
102
}
330
1
100
AcDbSymbolTableRecord
100
AcDbBlockTableRecord
  2
A4 Title Block
340
0
102
{BLKREFS
331
12D0
102
}
1001
ACAD
1000
DesignCenter Data
1002
{
1070
     1
1070
     4
1002
}
  0
BLOCK_RECORD
  5
1540
330
1
100
AcDbSymbolTableRecord
100
AcDbBlockTableRecord
  2
_ArchTick
340
0
  0
BLOCK_RECORD
  5
1543
330
1
100
AcDbSymbolTableRecord
100
AcDbBlockTableRecord
  2
_Dot
340
0
  0
ENDTAB
  0
ENDSEC
  0
SECTION
  2
BLOCKS
  0
BLOCK
  5
1A5
330
2
100
AcDbEntity
  8
0
100
AcDbBlockBegin
  2
*MODEL_SPACE
 70
     0
 10
0.0
 20
0.0
 30
0.0
  3
*MODEL_SPACE
  1

  0
ENDBLK
  5
1A7
330
2
100
AcDbEntity
  8
0
100
AcDbBlockEnd
  0
BLOCK
  5
69B
330
1A8
100
AcDbEntity
 67
     1
  8
0
100
AcDbBlockBegin
  2
*PAPER_SPACE
 70
     0
 10
0.0
 20
0.0
 30
0.0
  3
*PAPER_SPACE
  1

  0
ENDBLK
  5
69C
330
1A8
100
AcDbEntity
 67
     1
  8
0
100
AcDbBlockEnd
  0
BLOCK
  5
6B3
330
6B1
100
AcDbEntity
  8
0
100
AcDbBlockBegin
  2
_OBLIQUE
 70
     0
 10
0.0
 20
0.0
 30
0.0
  3
_OBLIQUE
  1

  0
LINE
  5
6B2
330
6B1
100
AcDbEntity
  8
0
  6
ByBlock
 62
     0
100
AcDbLine
 10
-0.5
 20
-0.5
 30
0.0
 11
0.5
 21
0.5
 31
0.0
  0
ENDBLK
  5
6B4
330
6B1
100
AcDbEntity
  8
0
100
AcDbBlockEnd
  0
BLOCK
  5
12C7
330
12AE
100
AcDbEntity
  8
0
100
AcDbBlockBegin
  2
A4 Title Block
 70
     2
 10
0.0
 20
0.0
 30
0.0
  3
A4 Title Block
  1

  0
TEXT
  5
154C
330
12AE
100
AcDbEntity
  8
3
 62
     7
100
AcDbText
 10
-853.4347976406543
 20
37.0581002795501
 30
0.0
 40
8.0
  1

 41
0.85
  7
ROMANS
100
AcDbText
  0
LINE
  5
154D
330
12AE
100
AcDbEntity
  8
Title block
100
AcDbLine
 10
-53.39424020223919
 20
255.4041454248354
 30
0.0
 11
-53.39424020223919
 21
-21.19891004925512
 31
0.0
  0
LINE
  5
154E
330
12AE
100
AcDbEntity
  8
Title block
100
AcDbLine
 10
-53.39424020223919
 20
-21.19891004925512
 30
0.0
 11
136.6057597977608
 21
-21.19891004925512
 31
0.0
  0
LINE
  5
154F
330
12AE
100
AcDbEntity
  8
Title block
100
AcDbLine
 10
136.6057597977608
 20
-21.19891004925512
 30
0.0
 11
136.6057597977608
 21
255.4041454248354
 31
0.0
  0
LINE
  5
1550
330
12AE
100
AcDbEntity
  8
Title block
100
AcDbLine
 10
136.6057597977608
 20
255.4041454248354
 30
0.0
 11
-53.39424020223919
 21
255.4041454248354
 31
0.0
  0
LINE
  5
1551
330
12AE
100
AcDbEntity
  8
Title block
100
AcDbLine
 10
-1.795875039454067
 20
-6.141303048717783
 30
0.0
 11
136.7843384162145
 21
-6.141303048717663
 31
0.0
  0
LINE
  5
1552
330
12AE
100
AcDbEntity
  8
Title block
100
AcDbLine
 10
-1.795875039454067
 20
-15.17614263826263
 30
0.0
 11
136.7843384162147
 21
-15.17614263826251
 31
0.0
  0
TEXT
  5
1553
330
12AE
100
AcDbEntity
  8
0
100
AcDbText
 10
0.6517825475052632
 20
-11.76410445304272
 30
0.0
 40
2.5
  1
Date:
  7
Title block
100
AcDbText
  0
TEXT
  5
1554
330
12AE
100
AcDbEntity
  8
0
100
AcDbText
 10
91.38994071143883
 20
-11.70327088333114
 30
0.0
 40
2.5
  1
Detail No.
  7
Title block
100
AcDbText
  0
TEXT
  5
1555
330
12AE
100
AcDbEntity
  8
0
100
AcDbText
 10
0.4781396402668179
 20
2.432750857016124
 30
0.0
 40
2.5
  1
Title:
  7
Title block
100
AcDbText
  0
LWPOLYLINE
  5
1556
330
12AE
100
AcDbEntity
  8
Title block
100
AcDbPolyline
 90
        2
 70
     0
 43
0.0
 10
-53.39424020223919
 20
8.156069115485486
 10
136.6057597977608
 20
8.156069115485486
  0
MTEXT
  5
1557
330
12AE
100
AcDbEntity
  8
Title block
100
AcDbMText
 10
-1.184518202095205
 20
-17.38860623730951
 30
0.0
 40
2.0
 41
162.2032764939204
 71
     1
 72
     1
  1
This drawing must be read in conjunction with the Supercrete Commercial & Industrial Wall Systems Design Guide
  7
Title block
 73
     1
 44
1.0
  0
LWPOLYLINE
  5
1558
330
12AE
100
AcDbEntity
  8
Title block
100
AcDbPolyline
 90
        2
 70
     0
 43
0.0
 10
46.71209860759859
 20
-6.141303048717773
 10
46.71209860759859
 20
-15.17614263826262
  0
LWPOLYLINE
  5
1559
330
12AE
100
AcDbEntity
  8
Title block
100
AcDbPolyline
 90
        2
 70
     0
 43
0.0
 10
89.74925677747592
 20
-6.141303048717704
 10
89.74925677747592
 20
-15.17614263826255
  0
TEXT
  5
155A
330
12AE
100
AcDbEntity
  8
0
100
AcDbText
 10
51.06569660619993
 20
-11.76410445304272
 30
0.0
 40
2.5
  1
Scale:
  7
Title block
100
AcDbText
  0
ATTDEF
  5
155B
330
12AE
100
AcDbEntity
  8
Title block
100
AcDbText
 10
39.57990030128394
 20
2.42141026247782
 30
0.0
 40
4.0
  1

100
AcDbAttributeDefinition
  3
Title
  2
TITLE
 70
     0
1001
AcDbAttr
1070
     0
1070
     1
  0
ATTDEF
  5
155C
330
12AE
100
AcDbEntity
  8
Title block
100
AcDbText
 10
11.94525974027624
 20
-11.93443354649616
 30
0.0
 40
2.5
  1

100
AcDbAttributeDefinition
  3
Date
  2
DATE
 70
     0
1001
AcDbAttr
1070
     0
1070
     1
  0
ATTDEF
  5
155D
330
12AE
100
AcDbEntity
  8
Title block
100
AcDbText
 10
63.23629700150786
 20
-11.93443354649616
 30
0.0
 40
2.5
  1

100
AcDbAttributeDefinition
  3
Scale
  2
SCALE
 70
     0
1001
AcDbAttr
1070
     0
1070
     1
  0
ATTDEF
  5
155E
330
12AE
100
AcDbEntity
  8
Title block
100
AcDbText
 10
109.8604241840326
 20
-12.15072715688961
 30
0.0
 40
3.5
  1

100
AcDbAttributeDefinition
  3
Drg No
  2
DRGNO
 70
     0
1001
AcDbAttr
1070
     0
1070
     1
  0
ATTDEF
  5
155F
330
12AE
100
AcDbEntity
  8
Title block
100
AcDbText
 10
39.57990030128394
 20
-4.43392399728782
 30
0.0
 40
4.0
  1

100
AcDbAttributeDefinition
  3
Title2
  2
TITLE2
 70
     0
1001
AcDbAttr
1070
     0
1070
     1
  0
LINE
  5
1560
330
12AE
100
AcDbEntity
  8
Title block
100
AcDbLine
 10
-1.795875039454059
 20
-21.19891004925512
 30
0.0
 11
-1.795875039454074
 21
8.156069115485486
 31
0.0
  0
MTEXT
  5
1561
102
{ACAD_XDICTIONARY
360
1562
102
}
330
12AE
100
AcDbEntity
  8
Text
100
AcDbMText
 10
-55.12753173127713
 20
-7.003771573345915
 30
0.0
 40
3.0
 41
55.49050343911358
 71
     1
 72
     5
  1
\pi3.2792;CIWS CONSTRUCTION
  7
Titles
 73
     1
 44
1.0
1001
ACAD
1000
ACAD_MTEXT_COLUMN_INFO_BEGIN
1070
    75
1070
     2
1070
    79
1070
     0
1070
    76
1070
     1
1070
    78
1070
     0
1070
    48
1040
55.49050343911358
1070
    49
1040
12.5
1070
    50
1070
     1
1040
0.0
1000
ACAD_MTEXT_COLUMN_INFO_END
  0
IMAGE
  5
1563
330
12AE
100
AcDbEntity
  8
0
 92
      140
310
8C0000000100000084000000060000000500000060B1837676B24AC090DAAA3FC0C10BC0000000000000000060B1837676B24AC0FFD9854AE84F2040000000000000000000872277E7BBFCBFFFD9854AE84F2040000000000000000000872277E7BBFCBF90DAAA3FC0C10BC0000000000000000060B1837676B24AC090DAAA
310
3FC0C10BC00000000000000000
100
AcDbRasterImage
 90
        0
 10
-53.39424020223919
 20
-3.469604966546576
 30
0.0
 11
0.0377456950715327
 21
0.0
 31
0.0
 12
0.0
 22
0.0377456950715327
 32
0.0
 13
1367.0
 23
308.0
340
1566
 70
     7
280
     0
281
    50
282
    50
283
     0
360
1564
 71
     1
 91
        2
 14
-0.5
 24
-0.5
 14
1366.5
 24
307.5
  0
ENDBLK
  5
12C8
330
12AE
100
AcDbEntity
  8
0
100
AcDbBlockEnd
  0
BLOCK
  5
1541
330
1540
100
AcDbEntity
  8
0
100
AcDbBlockBegin
  2
_ArchTick
 70
     0
 10
0.0
 20
0.0
 30
0.0
  3
_ArchTick
  1

  0
ENDBLK
  5
1542
330
1540
100
AcDbEntity
  8
0
100
AcDbBlockEnd
  0
BLOCK
  5
1544
330
1543
100
AcDbEntity
  8
0
100
AcDbBlockBegin
  2
_Dot
 70
     0
 10
0.0
 20
0.0
 30
0.0
  3
_Dot
  1

  0
ENDBLK
  5
1545
330
1543
100
AcDbEntity
  8
0
100
AcDbBlockEnd
  0
ENDSEC
  0
SECTION
  2
ENTITIES
  0
LINE
  5
3
330
2
100
AcDbEntity
  8
HB_PANELS
 62
     8
100
AcDbLine
 10
-715.2130808558431
 20
1757.808538727477
 30
0.0
 11
-715.2130808558504
 21
1985.808538727491
 31
0.0
  0
LINE
  5
6
330
2
100
AcDbEntity
  8
HB_PANELS
100
AcDbLine
 10
252.4805866624593
 20
1749.144582819222
 30
0.0
 11
252.4805866624593
 21
1559.144582819223
 31
0.0
  0
LINE
  5
7
330
2
100
AcDbEntity
  8
HB_PANELS
 62
     8
100
AcDbLine
 10
373.4453231959051
 20
1470.555559619177
 30
0.0
 11
791.2417003545633
 21
1711.77041043817
 31
0.0
  0
LINE
  5
8
330
2
100
AcDbEntity
  8
HB_PANELS
 62
     8
100
AcDbLine
 10
373.4453231959051
 20
1489.30555961917
 30
0.0
 11
791.2417003545706
 21
1730.52041043817
 31
0.0
  0
LINE
  5
9
330
2
100
AcDbEntity
  8
HB_PANELS
 62
     8
100
AcDbLine
 10
-715.2130808558431
 20
1757.808538727477
 30
0.0
 11
-267.5834945660681
 21
1499.369476585838
 31
0.0
  0
LINE
  5
A
330
2
100
AcDbEntity
  8
HB_PANELS
 62
     8
100
AcDbLine
 10
-267.5834945660681
 20
1499.369476585838
 30
0.0
 11
44.21530656020332
 21
1679.386598349105
 31
0.0
  0
LINE
  5
B
330
2
100
AcDbEntity
  8
HB_PANELS
 62
     8
100
AcDbLine
 10
-267.5834945660681
 20
1480.619476585838
 30
0.0
 11
44.21530656019604
 21
1660.636598349098
 31
0.0
  0
LINE
  5
C
330
2
100
AcDbEntity
  8
HB_PANELS
 62
     8
100
AcDbLine
 10
-715.2130808558431
 20
1739.058538727477
 30
0.0
 11
-267.5834945660681
 21
1480.619476585838
 31
0.0
  0
LINE
  5
D
330
2
100
AcDbEntity
  8
HB_PANELS
 62
     8
100
AcDbLine
 10
-715.2130808558431
 20
1757.808538727477
 30
0.0
 11
-715.2130808558431
 21
1739.058538727477
 31
0.0
  0
LINE
  5
E
330
2
100
AcDbEntity
  8
HB_PANELS
 62
     8
100
AcDbLine
 10
-267.5834945660681
 20
1499.369476585838
 30
0.0
 11
-267.5834945660681
 21
1480.619476585838
 31
0.0
  0
LINE
  5
F
330
2
100
AcDbEntity
  8
HB_PANELS
 62
     8
100
AcDbLine
 10
-267.5834945660681
 20
1499.369476585838
 30
0.0
 11
-256.7581770187608
 21
1505.619476585838
 31
0.0
  0
LINE
  5
10
330
2
100
AcDbEntity
  8
HB_PANELS
 62
     8
100
AcDbLine
 10
-267.5834945660681
 20
1499.369476585838
 30
0.0
 11
-267.5834945660754
 21
1854.508285990763
 31
0.0
  0
LINE
  5
11
330
2
100
AcDbEntity
  8
HB_PANELS
 62
     8
100
AcDbLine
 10
44.21530656020332
 20
1660.63659834909
 30
0.0
 11
44.21530656019604
 21
2034.52540775403
 31
0.0
  0
LINE
  5
12
330
2
100
AcDbEntity
  8
HB_PANELS
  6
HIDDEN
 62
     8
 48
0.1
100
AcDbLine
 10
141.6431644859622
 20
1813.136598349112
 30
0.0
 11
141.6431644859622
 21
1635.636598349105
 31
0.0
  0
LINE
  5
13
330
2
100
AcDbEntity
  8
HB_PANELS
100
AcDbLine
 10
130.8178469386548
 20
1629.386598349102
 30
0.0
 11
149.1364387875146
 21
1639.962842284214
 31
0.0
  0
LINE
  5
14
330
2
100
AcDbEntity
  8
HB_PANELS
100
AcDbLine
 10
130.8178469386548
 20
1819.386598349112
 30
0.0
 11
130.8178469386548
 21
1629.386598349105
 31
0.0
  0
LINE
  5
15
330
2
100
AcDbEntity
  8
HB_PANELS
 62
     8
100
AcDbLine
 10
373.4453231959051
 20
1489.305559619184
 30
0.0
 11
44.21530656020332
 21
1679.386598349105
 31
0.0
  0
LINE
  5
16
330
2
100
AcDbEntity
  8
HB_PANELS
100
AcDbLine
 10
-12.58427997070248
 20
1646.593341775617
 30
0.0
 11
-12.58427997070248
 21
1779.843341775668
 31
0.0
  0
LINE
  5
17
330
2
100
AcDbEntity
  8
HB_PANELS
 62
     8
100
AcDbLine
 10
-267.5834945660681
 20
1536.869476585823
 30
0.0
 11
-64.86456244069995
 21
1653.909306618254
 31
0.0
  0
LINE
  5
18
330
2
100
AcDbEntity
  8
HB_PANELS
 62
     8
100
AcDbLine
 10
-267.5834945660681
 20
1611.869476585853
 30
0.0
 11
-195.0890508437805
 21
1653.724163183666
 31
0.0
  0
LINE
  5
19
330
2
100
AcDbEntity
  8
HB_PANELS
 62
     8
100
AcDbLine
 10
-715.2130808558431
 20
1795.308538727477
 30
0.0
 11
-658.2801538106359
 21
1762.438297972192
 31
0.0
  0
LINE
  5
1A
330
2
100
AcDbEntity
  8
HB_PANELS
 62
     8
100
AcDbLine
 10
-715.2130808558431
 20
1870.308538727477
 30
0.0
 11
-658.2801538106359
 21
1837.438297972185
 31
0.0
  0
LINE
  5
1B
330
2
100
AcDbEntity
  8
HB_PANELS
 62
     8
100
AcDbLine
 10
-256.7581770187753
 20
1505.619476585838
 30
0.0
 11
-256.7581770187753
 21
1860.758285990771
 31
0.0
  0
LINE
  5
1C
330
2
100
AcDbEntity
  8
HB_PANELS
100
AcDbLine
 10
-653.856781600487
 20
1722.384462835922
 30
0.0
 11
-653.856781600487
 21
1912.384462835944
 31
0.0
  0
LINE
  5
1D
330
2
100
AcDbEntity
  8
HB_PANELS
 62
     8
100
AcDbLine
 10
-715.2130808558431
 20
1832.808538727462
 30
0.0
 11
-658.2801538106359
 21
1799.938297972156
 31
0.0
  0
LINE
  5
1E
330
2
100
AcDbEntity
  8
HB_PANELS
 62
     8
100
AcDbLine
 10
-267.5834945660681
 20
1574.369476585852
 30
0.0
 11
-64.86456244069995
 21
1691.409306618283
 31
0.0
  0
LINE
  5
1F
330
2
100
AcDbEntity
  8
HB_PANELS
 62
     8
100
AcDbLine
 10
791.2417003545633
 20
1958.520410438184
 30
0.0
 11
791.2417003545633
 21
1711.77041043817
 31
0.0
  0
LINE
  5
20
330
2
100
AcDbEntity
  8
HB_PANELS
 62
     8
100
AcDbLine
 10
373.4453231959051
 20
1717.30555961917
 30
0.0
 11
373.4453231959051
 21
1470.555559619177
 31
0.0
  0
LINE
  5
21
330
2
100
AcDbEntity
  8
HB_PANELS
 62
     8
100
AcDbLine
 10
373.4453231959051
 20
1527.305559619162
 30
0.0
 11
791.2417003545706
 21
1768.52041043817
 31
0.0
  0
LINE
  5
22
330
2
100
AcDbEntity
  8
HB_PANELS
 62
     8
100
AcDbLine
 10
373.4453231959051
 20
1565.305559619162
 30
0.0
 11
397.7342281108213
 21
1579.328765410108
 31
0.0
  0
LINE
  5
23
330
2
100
AcDbEntity
  8
HB_PANELS
 62
     8
100
AcDbLine
 10
373.4453231959051
 20
1603.305559619163
 30
0.0
 11
791.2417003545706
 21
1844.52041043817
 31
0.0
  0
LINE
  5
24
330
2
100
AcDbEntity
  8
HB_PANELS
 62
     8
100
AcDbLine
 10
373.4453231959051
 20
1641.305559619162
 30
0.0
 11
791.2417003545706
 21
1882.52041043817
 31
0.0
  0
LINE
  5
25
330
2
100
AcDbEntity
  8
HB_PANELS
 62
     8
100
AcDbLine
 10
373.4453231959051
 20
1679.305559619162
 30
0.0
 11
791.2417003545706
 21
1920.52041043817
 31
0.0
  0
LINE
  5
26
330
2
100
AcDbEntity
  8
HB_PANELS
 62
     8
100
AcDbLine
 10
373.4453231959051
 20
1717.305559619163
 30
0.0
 11
791.2417003545706
 21
1958.52041043817
 31
0.0
  0
LINE
  5
27
330
2
100
AcDbEntity
  8
HB_PANELS
 62
     8
100
AcDbLine
 10
373.4453231959124
 20
1527.305559619169
 30
0.0
 11
252.4805866624593
 21
1597.144582819223
 31
0.0
  0
LINE
  5
28
330
2
100
AcDbEntity
  8
HB_PANELS
 62
     8
100
AcDbLine
 10
373.4453231959124
 20
1565.30555961917
 30
0.0
 11
252.4805866624593
 21
1635.144582819222
 31
0.0
  0
LINE
  5
29
330
2
100
AcDbEntity
  8
HB_PANELS
 62
     8
100
AcDbLine
 10
373.4453231959124
 20
1603.30555961917
 30
0.0
 11
252.4805866624593
 21
1673.144582819223
 31
0.0
  0
LINE
  5
2A
330
2
100
AcDbEntity
  8
HB_PANELS
 62
     8
100
AcDbLine
 10
373.4453231959124
 20
1641.305559619169
 30
0.0
 11
252.4805866624593
 21
1711.144582819215
 31
0.0
  0
LINE
  5
2B
330
2
100
AcDbEntity
  8
HB_PANELS
 62
     8
100
AcDbLine
 10
373.4453231959124
 20
1679.30555961917
 30
0.0
 11
257.886894234965
 21
1746.023249686911
 31
0.0
  0
LINE
  5
2C
330
2
100
AcDbEntity
  8
HB_PANELS
 62
     8
100
AcDbLine
 10
130.8178469386475
 20
1667.386598349105
 30
0.0
 11
115.8326177185881
 21
1676.038324473178
 31
0.0
  0
LINE
  5
2F
330
2
100
AcDbEntity
  8
HB_PANELS
 62
     8
100
AcDbLine
 10
130.8178469386475
 20
1705.386598349105
 30
0.0
 11
44.21530656020332
 21
1755.386598349105
 31
0.0
  0
LINE
  5
31
330
2
100
AcDbEntity
  8
HB_PANELS
 62
     8
100
AcDbLine
 10
130.8178469386475
 20
1743.386598349105
 30
0.0
 11
44.21530656020332
 21
1793.386598349105
 31
0.0
  0
LINE
  5
32
330
2
100
AcDbEntity
  8
HB_PANELS
 62
     8
100
AcDbLine
 10
373.4453231959124
 20
1717.30555961917
 30
0.0
 11
44.21530656019604
 21
1907.386598349127
 31
0.0
  0
LINE
  5
33
330
2
100
AcDbEntity
  8
HB_PANELS
 62
     8
100
AcDbLine
 10
130.8178469386548
 20
1781.38659834912
 30
0.0
 11
44.21530656019604
 21
1831.386598349141
 31
0.0
  0
LINE
  5
35
330
2
100
AcDbEntity
  8
HB_PANELS
 62
     8
100
AcDbLine
 10
373.4453231959051
 20
1470.555559619177
 30
0.0
 11
44.21530656020332
 21
1660.63659834909
 31
0.0
  0
LINE
  5
36
330
2
100
AcDbEntity
  8
HB_PANELS
 62
     8
100
AcDbLine
 10
-715.2130808558431
 20
1908.308538727476
 30
0.0
 11
-658.2801538106359
 21
1875.438297972178
 31
0.0
  0
LINE
  5
37
330
2
100
AcDbEntity
  8
HB_PANELS
 62
     8
100
AcDbLine
 10
-267.5834945660827
 20
1651.369476585867
 30
0.0
 11
44.21530656019604
 21
1831.386598349141
 31
0.0
  0
LINE
  5
38
330
2
100
AcDbEntity
  8
HB_PANELS
 62
     8
100
AcDbLine
 10
-715.2130808558504
 20
1947.808538727506
 30
0.0
 11
-658.2801538106359
 21
1914.938297972192
 31
0.0
  0
LINE
  5
39
330
2
100
AcDbEntity
  8
HB_PANELS
 62
     8
100
AcDbLine
 10
-267.5834945660827
 20
1689.369476585867
 30
0.0
 11
44.21530656019604
 21
1869.386598349141
 31
0.0
  0
LINE
  5
3A
330
2
100
AcDbEntity
  8
HB_PANELS
 62
     8
100
AcDbLine
 10
-715.2130808558504
 20
1985.808538727491
 30
0.0
 11
-267.5834945660827
 21
1727.369476585867
 31
0.0
  0
LINE
  5
3B
330
2
100
AcDbEntity
  8
HB_PANELS
 62
     8
100
AcDbLine
 10
-267.5834945660681
 20
1727.369476585874
 30
0.0
 11
44.21530656019604
 21
1907.386598349141
 31
0.0
  0
LINE
  5
3D
330
2
100
AcDbEntity
  8
HB_PANELS
100
AcDbLine
 10
-515.850712926549
 20
1642.706621937221
 30
0.0
 11
-515.8507129265417
 21
1832.706621937242
 31
0.0
  0
LINE
  5
3E
330
2
100
AcDbEntity
  8
HB_PANELS
 62
     8
100
AcDbLine
 10
-510.4444053540573
 20
1677.085288804926
 30
0.0
 11
-267.5834945660681
 21
1536.869476585823
 31
0.0
  0
LINE
  5
3F
330
2
100
AcDbEntity
  8
HB_PANELS
 62
     8
100
AcDbLine
 10
-510.4444053540573
 20
1714.585288804926
 30
0.0
 11
-267.5834945660681
 21
1574.369476585852
 31
0.0
  0
LINE
  5
40
330
2
100
AcDbEntity
  8
HB_PANELS
 62
     8
100
AcDbLine
 10
-510.4444053540428
 20
1752.085288804941
 30
0.0
 11
-410.7539877179442
 21
1694.528999347101
 31
0.0
  0
LINE
  5
41
330
2
100
AcDbEntity
  8
HB_PANELS
 62
     8
100
AcDbLine
 10
-510.44440535405
 20
1791.585288804941
 30
0.0
 11
-267.5834945660827
 21
1651.369476585867
 31
0.0
  0
LINE
  5
42
330
2
100
AcDbEntity
  8
HB_PANELS
100
AcDbLine
 10
-60.55548641699715
 20
1618.8971528205
 30
0.0
 11
-60.55548641699715
 21
1752.147152820544
 31
0.0
  0
LINE
  5
43
330
2
100
AcDbEntity
  8
HB_PANELS
 62
     8
100
AcDbLine
 10
-8.254152951776632
 20
1686.593341775631
 30
0.0
 11
44.21530656019604
 21
1716.886598349127
 31
0.0
  0
LINE
  5
44
330
2
100
AcDbEntity
  8
HB_PANELS
 62
     8
100
AcDbLine
 10
-8.254152951776632
 20
1725.093341775617
 30
0.0
 11
44.21530656020332
 21
1755.386598349105
 31
0.0
  0
LINE
  5
45
330
2
100
AcDbEntity
  8
HB_PANELS
 62
     8
100
AcDbLine
 10
-8.254152951776632
 20
1763.093341775617
 30
0.0
 11
44.21530656020332
 21
1793.386598349105
 31
0.0
  0
LINE
  5
46
330
2
100
AcDbEntity
  8
HB_PANELS
100
AcDbLine
 10
-653.856781600487
 20
1722.384462835922
 30
0.0
 11
-643.0314640531796
 21
1728.634462835922
 31
0.0
  0
LINE
  5
47
330
2
100
AcDbEntity
  8
HB_PANELS
100
AcDbLine
 10
-643.0314640531796
 20
1906.134462835929
 30
0.0
 11
-643.0314640531796
 21
1728.634462835922
 31
0.0
  0
LINE
  5
48
330
2
100
AcDbEntity
  8
HB_PANELS
100
AcDbLine
 10
-23.40959751800256
 20
1773.593341775675
 30
0.0
 11
-23.40959751800256
 21
1652.84334177561
 31
0.0
  0
LINE
  5
49
330
2
100
AcDbEntity
  8
HB_PANELS
100
AcDbLine
 10
-12.58427997070248
 20
1646.593341775617
 30
0.0
 11
-23.40959751800256
 21
1652.84334177561
 31
0.0
  0
LINE
  5
4A
330
2
100
AcDbEntity
  8
HB_PANELS
 62
     8
100
AcDbLine
 10
-133.1932106728272
 20
1689.459743168088
 30
0.0
 11
-64.86456244069268
 21
1728.909306618269
 31
0.0
  0
LINE
  5
4B
330
2
100
AcDbEntity
  8
HB_PANELS
 62
     8
100
AcDbLine
 10
-195.0890508437805
 20
1616.224163183673
 30
0.0
 11
-195.0890508437805
 21
1691.724163183673
 31
0.0
  0
LINE
  5
4C
330
2
100
AcDbEntity
  8
HB_PANELS
 62
     8
100
AcDbLine
 10
-133.1932106728272
 20
1651.959743168096
 30
0.0
 11
-133.1932106728272
 21
1727.459743168088
 31
0.0
  0
LINE
  5
4D
330
2
100
AcDbEntity
  8
HB_PANELS
 62
     8
100
AcDbLine
 10
-133.1932106728272
 20
1651.959743168096
 30
0.0
 11
-144.0185282201273
 21
1658.209743168088
 31
0.0
  0
LINE
  5
4E
330
2
100
AcDbEntity
  8
HB_PANELS
 62
     8
100
AcDbLine
 10
-195.0890508437805
 20
1628.724163183666
 30
0.0
 11
-144.0185282201273
 21
1658.209743168088
 31
0.0
  0
LINE
  5
4F
330
2
100
AcDbEntity
  8
HB_PANELS
 62
     8
100
AcDbLine
 10
-144.0185282201273
 20
1658.209743168088
 30
0.0
 11
-144.0185282201273
 21
1721.209743168096
 31
0.0
  0
LINE
  5
50
330
2
100
AcDbEntity
  8
HB_PANELS
 62
     8
100
AcDbLine
 10
-133.1932106728272
 20
1689.459743168088
 30
0.0
 11
-144.0185282201273
 21
1695.709743168081
 31
0.0
  0
LINE
  5
51
330
2
100
AcDbEntity
  8
HB_PANELS
 62
     8
100
AcDbLine
 10
596.4429027797669
 20
1846.053272220546
 30
0.0
 11
596.4429027797669
 21
1618.053272220546
 31
0.0
  0
LINE
  5
52
330
2
100
AcDbEntity
  8
HB_PANELS
 62
     8
100
AcDbLine
 10
-464.6808027654115
 20
1803.163660531303
 30
0.0
 11
-464.6808027654115
 21
1916.163660531296
 31
0.0
  0
LINE
  5
53
330
2
100
AcDbEntity
  8
HB_PANELS
 62
     8
100
AcDbLine
 10
376.1583442452087
 20
1731.371923052297
 30
0.0
 11
769.5910652599632
 21
1958.520410438177
 31
0.0
  0
LINE
  5
54
330
2
100
AcDbEntity
  8
HB_PANELS
 62
     8
100
AcDbLine
 10
384.2706407432124
 20
1723.55555961917
 30
0.0
 11
384.2706407432124
 21
1495.55555961917
 31
0.0
  0
LINE
  5
55
330
2
100
AcDbEntity
  8
HB_PANELS
 62
     8
100
AcDbLine
 10
596.4429027797669
 20
1846.053272220546
 30
0.0
 11
585.6175852324668
 21
1852.303272220546
 31
0.0
  0
LINE
  5
56
330
2
100
AcDbEntity
  8
HB_PANELS
 62
     8
100
AcDbLine
 10
-410.7539877179442
 20
1657.028999347094
 30
0.0
 11
-410.7539877179442
 21
1734.028999347109
 31
0.0
  0
LINE
  5
57
330
2
100
AcDbEntity
  8
HB_PANELS
 62
     8
100
AcDbLine
 10
-348.0651928693769
 20
1620.835606766108
 30
0.0
 11
-348.0651928693769
 21
1697.835606766115
 31
0.0
  0
LINE
  5
58
330
2
100
AcDbEntity
  8
HB_PANELS
 62
     8
100
AcDbLine
 10
-348.0651928693769
 20
1658.335606766108
 30
0.0
 11
-267.5834945660681
 21
1611.869476585853
 31
0.0
  0
LINE
  5
59
330
2
100
AcDbEntity
  8
HB_PANELS
 62
     8
100
AcDbLine
 10
-399.9286701706369
 20
1663.278999347094
 30
0.0
 11
-399.9286701706369
 21
1727.778999347109
 31
0.0
  0
LINE
  5
5A
330
2
100
AcDbEntity
  8
HB_PANELS
 62
     8
100
AcDbLine
 10
-399.9286701706369
 20
1663.278999347094
 30
0.0
 11
-348.0651928693769
 21
1633.335606766108
 31
0.0
  0
LINE
  5
5B
330
2
100
AcDbEntity
  8
HB_PANELS
 62
     8
100
AcDbLine
 10
-410.7539877179442
 20
1657.028999347094
 30
0.0
 11
-399.9286701706369
 21
1663.278999347094
 31
0.0
  0
LINE
  5
5C
330
2
100
AcDbEntity
  8
HB_PANELS
 62
     8
100
AcDbLine
 10
-410.7539877179442
 20
1694.528999347101
 30
0.0
 11
-399.9286701706442
 21
1700.778999347101
 31
0.0
  0
LINE
  5
5D
330
2
100
AcDbEntity
  8
HB_PANELS
 62
     8
100
AcDbLine
 10
780.416382807256
 20
1952.270410438185
 30
0.0
 11
769.5910652599632
 21
1958.520410438177
 31
0.0
  0
LINE
  5
5E
330
2
100
AcDbEntity
  8
HB_PANELS
100
AcDbLine
 10
14.38209742911567
 20
2386.220925958673
 30
0.0
 11
14.38209742911567
 21
2154.040511309788
 31
0.0
  0
LINE
  5
5F
330
2
100
AcDbEntity
  8
HB_PANELS
 62
     8
100
AcDbLine
 10
19.79475620276207
 20
2163.415511309795
 30
0.0
 11
175.6191705421816
 21
2073.450243744608
 31
0.0
  0
LINE
  5
60
330
2
100
AcDbEntity
  8
HB_PANELS
 62
     8
100
AcDbLine
 10
-643.0314640531796
 20
1786.982614619061
 30
0.0
 11
-539.8429365894917
 21
1846.558538727499
 31
0.0
  0
LINE
  5
61
330
2
100
AcDbEntity
  8
HB_PANELS
 62
     8
100
AcDbLine
 10
-386.2833830728559
 20
1935.216188286969
 30
0.0
 11
-196.5746841222717
 21
2044.744556693709
 31
0.0
  0
LINE
  5
62
330
2
100
AcDbEntity
  8
HB_PANELS
 62
     8
100
AcDbLine
 10
25.20741497642303
 20
2197.790511309781
 30
0.0
 11
208.0951231840997
 21
2092.20024374461
 31
0.0
  0
LINE
  5
63
330
2
100
AcDbEntity
  8
HB_PANELS
 62
     8
100
AcDbLine
 10
-440.2472599832399
 20
1941.560129426245
 30
0.0
 11
-407.9340181674633
 21
1960.216188286969
 31
0.0
  0
LINE
  5
64
330
2
100
AcDbEntity
  8
HB_PANELS
 62
     8
100
AcDbLine
 10
-489.041687937417
 20
1950.888653311944
 30
0.0
 11
-407.9340181674633
 21
1997.716188286969
 31
0.0
  0
LINE
  5
65
330
2
100
AcDbEntity
  8
HB_PANELS
 62
     8
100
AcDbLine
 10
25.20741497642303
 20
2235.290511309788
 30
0.0
 11
212.0332646683455
 21
2127.426556698571
 31
0.0
  0
LINE
  5
66
330
2
100
AcDbEntity
  8
HB_PANELS
 62
     8
100
AcDbLine
 10
-537.8361158916013
 20
1960.217177197642
 30
0.0
 11
-407.9340181674633
 21
2035.21618828697
 31
0.0
  0
LINE
  5
67
330
2
100
AcDbEntity
  8
HB_PANELS
 62
     8
100
AcDbLine
 10
25.20741497642303
 20
2272.79051130978
 30
0.0
 11
212.0332646683528
 21
2164.926556698571
 31
0.0
  0
LINE
  5
68
330
2
100
AcDbEntity
  8
HB_PANELS
 62
     8
100
AcDbLine
 10
-586.6305438457857
 20
1969.545701083341
 30
0.0
 11
-407.9340181674633
 21
2072.716188286969
 31
0.0
  0
LINE
  5
69
330
2
100
AcDbEntity
  8
HB_PANELS
 62
     8
100
AcDbLine
 10
25.20741497642303
 20
2310.29051130978
 30
0.0
 11
212.0332646683601
 21
2202.426556698556
 31
0.0
  0
LINE
  5
6A
330
2
100
AcDbEntity
  8
HB_PANELS
 62
     8
100
AcDbLine
 10
-635.42497179997
 20
1978.87422496904
 30
0.0
 11
-407.9340181674633
 21
2110.216188286977
 31
0.0
  0
LINE
  5
6B
330
2
100
AcDbEntity
  8
HB_PANELS
 62
     8
100
AcDbLine
 10
25.20741497642303
 20
2347.790511309781
 30
0.0
 11
212.0332646683674
 21
2239.926556698556
 31
0.0
  0
LINE
  5
6C
330
2
100
AcDbEntity
  8
HB_PANELS
 62
     8
100
AcDbLine
 10
-643.0314640531796
 20
1824.482614619061
 30
0.0
 11
-572.3188892314137
 21
1865.308538727498
 31
0.0
  0
LINE
  5
6D
330
2
100
AcDbEntity
  8
HB_PANELS
 62
     8
100
AcDbLine
 10
-643.0314640531796
 20
1861.98261461906
 30
0.0
 11
-604.7948418733285
 21
1884.058538727499
 31
0.0
  0
LINE
  5
6E
330
2
100
AcDbEntity
  8
HB_PANELS
 62
     8
100
AcDbLine
 10
791.2417003545633
 20
1958.520410438184
 30
0.0
 11
499.919349257516
 21
2239.215448265034
 31
0.0
  0
LINE
  5
6F
330
2
100
AcDbEntity
  8
HB_PANELS
 62
     8
100
AcDbLine
 10
402.8118988918358
 20
2332.780460873983
 30
0.0
 11
208.5969981604794
 21
2369.910486091882
 31
0.0
  0
LINE
  5
71
330
2
100
AcDbEntity
  8
HB_PANELS
 62
     8
100
AcDbLine
 10
391.9865813445358
 20
2326.530460873982
 30
0.0
 11
197.7716806131814
 21
2363.660486091883
 31
0.0
  0
LINE
  5
72
330
2
100
AcDbEntity
  8
HB_PANELS
 62
     8
100
AcDbLine
 10
402.8118988918358
 20
2332.780460873983
 30
0.0
 11
391.9865813445358
 21
2326.530460873982
 31
0.0
  0
LINE
  5
73
330
2
100
AcDbEntity
  8
HB_PANELS
 62
     8
100
AcDbLine
 10
-618.1056304901722
 20
1967.243526118553
 30
0.0
 11
-410.7539877179588
 21
1847.528999347123
 31
0.0
  0
LINE
  5
74
330
2
100
AcDbEntity
  8
HB_PANELS
 62
     8
100
AcDbLine
 10
-520.9981801244794
 20
1948.678513509607
 30
0.0
 11
-267.5834945660681
 21
1802.369476585867
 31
0.0
  0
LINE
  5
75
330
2
100
AcDbEntity
  8
HB_PANELS
 62
     8
100
AcDbLine
 10
-423.8907297588084
 20
1930.113500900668
 30
0.0
 11
-267.5834945660681
 21
1839.869476585867
 31
0.0
  0
LINE
  5
76
330
2
100
AcDbEntity
  8
HB_PANELS
 62
     8
100
AcDbLine
 10
-715.2130808558504
 20
1985.808538727491
 30
0.0
 11
-326.7832793931011
 21
1911.548488291722
 31
0.0
  0
LINE
  5
77
330
2
100
AcDbEntity
  8
HB_PANELS
 62
     8
100
AcDbLine
 10
780.416382807256
 20
1952.270410438192
 30
0.0
 11
780.4163828072487
 21
1724.270410438155
 31
0.0
  0
LINE
  5
78
330
2
100
AcDbEntity
  8
HB_PANELS
 62
     8
100
AcDbLine
 10
-267.5834945660754
 20
1854.508285990763
 30
0.0
 11
-326.7832793931011
 21
1911.548488291722
 31
0.0
  0
LINE
  5
79
330
2
100
AcDbEntity
  8
HB_PANELS
 62
     8
100
AcDbLine
 10
-704.387763308543
 20
1992.058538727491
 30
0.0
 11
-315.9579618457938
 21
1917.798488291722
 31
0.0
  0
LINE
  5
7A
330
2
100
AcDbEntity
  8
HB_PANELS
 62
     8
100
AcDbLine
 10
-256.7581770187753
 20
1860.758285990771
 30
0.0
 11
-315.9579618457938
 21
1917.798488291722
 31
0.0
  0
LINE
  5
7B
330
2
100
AcDbEntity
  8
HB_PANELS
 62
     8
100
AcDbLine
 10
-315.9579618457938
 20
1917.798488291722
 30
0.0
 11
-326.7832793931011
 21
1911.548488291722
 31
0.0
  0
LINE
  5
7C
330
2
100
AcDbEntity
  8
HB_PANELS
 62
     8
100
AcDbLine
 10
-256.7581770187753
 20
1860.758285990771
 30
0.0
 11
-267.5834945660827
 21
1854.508285990771
 31
0.0
  0
LINE
  5
7D
330
2
100
AcDbEntity
  8
HB_PANELS
 62
     8
100
AcDbLine
 10
-413.0654122115011
 20
1936.363500900675
 30
0.0
 11
-423.8907297588084
 21
1930.113500900676
 31
0.0
  0
LINE
  5
7E
330
2
100
AcDbEntity
  8
HB_PANELS
 62
     8
100
AcDbLine
 10
-510.1728625771865
 20
1954.928513509614
 30
0.0
 11
-520.9981801244866
 21
1948.678513509614
 31
0.0
  0
LINE
  5
7F
330
2
100
AcDbEntity
  8
HB_PANELS
 62
     8
100
AcDbLine
 10
-607.2803129428721
 20
1973.49352611856
 30
0.0
 11
-618.1056304901794
 21
1967.24352611856
 31
0.0
  0
LINE
  5
80
330
2
100
AcDbEntity
  8
HB_PANELS
 62
     8
100
AcDbLine
 10
-399.9286701706442
 20
1816.278999347123
 30
0.0
 11
-348.0651928693842
 21
1786.335606766137
 31
0.0
  0
LINE
  5
81
330
2
100
AcDbEntity
  8
HB_PANELS
 62
     8
100
AcDbLine
 10
-399.9286701706442
 20
1816.278999347123
 30
0.0
 11
-399.9286701706442
 21
1878.778999347108
 31
0.0
  0
LINE
  5
82
330
2
100
AcDbEntity
  8
HB_PANELS
 62
     8
100
AcDbLine
 10
-348.0651928693842
 20
1773.835606766137
 30
0.0
 11
-348.0651928693842
 21
1848.835606766115
 31
0.0
  0
LINE
  5
83
330
2
100
AcDbEntity
  8
HB_PANELS
 62
     8
100
AcDbLine
 10
-410.7539877179442
 20
1847.528999347131
 30
0.0
 11
-399.9286701706442
 21
1853.778999347131
 31
0.0
  0
LINE
  5
84
330
2
100
AcDbEntity
  8
HB_PANELS
 62
     8
100
AcDbLine
 10
-410.7539877179442
 20
1810.028999347123
 30
0.0
 11
-399.9286701706442
 21
1816.278999347123
 31
0.0
  0
LINE
  5
85
330
2
100
AcDbEntity
  8
HB_PANELS
 62
     8
100
AcDbLine
 10
-410.7539877179442
 20
1810.028999347123
 30
0.0
 11
-410.7539877179442
 21
1885.028999347109
 31
0.0
  0
LINE
  5
86
330
2
100
AcDbEntity
  8
HB_PANELS
 62
     8
100
AcDbLine
 10
-348.0651928693842
 20
1811.335606766122
 30
0.0
 11
-267.5834945660681
 21
1764.869476585867
 31
0.0
  0
LINE
  5
87
330
2
100
AcDbEntity
  8
HB_PANELS
 62
     8
100
AcDbLine
 10
373.4453231959051
 20
1717.305559619163
 30
0.0
 11
33.38998901287414
 21
2044.955822402926
 31
0.0
  0
LINE
  5
88
330
2
100
AcDbEntity
  8
HB_PANELS
 62
     8
100
AcDbLine
 10
384.2706407432124
 20
1723.555559619162
 30
0.0
 11
44.21530656018147
 21
2051.205822402926
 31
0.0
  0
LINE
  5
89
330
2
100
AcDbEntity
  8
HB_PANELS
 62
     8
100
AcDbLine
 10
-267.5834945660681
 20
1764.869476585874
 30
0.0
 11
-195.0890508437805
 21
1806.724163183695
 31
0.0
  0
LINE
  5
8A
330
2
100
AcDbEntity
  8
HB_PANELS
 62
     8
100
AcDbLine
 10
276.337872830205
 20
1810.87057222813
 30
0.0
 11
44.21530656019604
 21
1944.886598349127
 31
0.0
  0
LINE
  5
8B
330
2
100
AcDbEntity
  8
HB_PANELS
 62
     8
100
AcDbLine
 10
-267.5834945660681
 20
1802.369476585874
 30
0.0
 11
44.21530656019604
 21
1982.386598349141
 31
0.0
  0
LINE
  5
8C
330
2
100
AcDbEntity
  8
HB_PANELS
 62
     8
100
AcDbLine
 10
179.2304224645268
 20
1904.435584837076
 30
0.0
 11
44.21530656019604
 21
1982.386598349127
 31
0.0
  0
LINE
  5
8D
330
2
100
AcDbEntity
  8
HB_PANELS
 62
     8
100
AcDbLine
 10
-267.5834945660681
 20
1839.869476585874
 30
0.0
 11
44.21530656019604
 21
2019.886598349142
 31
0.0
  0
LINE
  5
8E
330
2
100
AcDbEntity
  8
HB_PANELS
 62
     8
100
AcDbLine
 10
82.12297209884127
 20
1998.000597446036
 30
0.0
 11
44.21530656019604
 21
2019.886598349127
 31
0.0
  0
LINE
  5
8F
330
2
100
AcDbEntity
  8
HB_PANELS
 62
     8
100
AcDbLine
 10
82.12297209884127
 20
1998.000597446036
 30
0.0
 11
92.94828964614863
 21
2004.250597446036
 31
0.0
  0
LINE
  5
90
330
2
100
AcDbEntity
  8
HB_PANELS
 62
     8
100
AcDbLine
 10
179.2304224645268
 20
1904.435584837076
 30
0.0
 11
190.0557400118341
 21
1910.685584837076
 31
0.0
  0
LINE
  5
91
330
2
100
AcDbEntity
  8
HB_PANELS
 62
     8
100
AcDbLine
 10
276.337872830205
 20
1810.87057222813
 30
0.0
 11
287.1631903775124
 21
1817.12057222813
 31
0.0
  0
LINE
  5
92
330
2
100
AcDbEntity
  8
HB_PANELS
 62
     8
100
AcDbLine
 10
-133.1932106728272
 20
1842.45974316811
 30
0.0
 11
-144.0185282201273
 21
1848.709743168103
 31
0.0
  0
LINE
  5
93
330
2
100
AcDbEntity
  8
HB_PANELS
 62
     8
100
AcDbLine
 10
-144.0185282201273
 20
1811.20974316811
 30
0.0
 11
-144.0185282201346
 21
1874.209743168117
 31
0.0
  0
LINE
  5
94
330
2
100
AcDbEntity
  8
HB_PANELS
 62
     8
100
AcDbLine
 10
-195.0890508437805
 20
1781.724163183695
 30
0.0
 11
-144.0185282201273
 21
1811.20974316811
 31
0.0
  0
LINE
  5
95
330
2
100
AcDbEntity
  8
HB_PANELS
 62
     8
100
AcDbLine
 10
-133.1932106728272
 20
1804.959743168118
 30
0.0
 11
-144.0185282201273
 21
1811.20974316811
 31
0.0
  0
LINE
  5
96
330
2
100
AcDbEntity
  8
HB_PANELS
 62
     8
100
AcDbLine
 10
-133.1932106728272
 20
1804.959743168118
 30
0.0
 11
-133.1932106728272
 21
1880.45974316811
 31
0.0
  0
LINE
  5
97
330
2
100
AcDbEntity
  8
HB_PANELS
 62
     8
100
AcDbLine
 10
-195.0890508437805
 20
1769.224163183702
 30
0.0
 11
-195.0890508437805
 21
1844.724163183695
 31
0.0
  0
LINE
  5
98
330
2
100
AcDbEntity
  8
HB_PANELS
 62
     8
100
AcDbLine
 10
-133.1932106728272
 20
1842.45974316811
 30
0.0
 11
-79.62250558035885
 21
1873.388804173934
 31
0.0
  0
LINE
  5
99
330
2
100
AcDbEntity
  8
HB_PANELS
 62
     8
100
AcDbLine
 10
-79.62250558035885
 20
1835.888804173934
 30
0.0
 11
-79.62250558035885
 21
1911.388804173926
 31
0.0
  0
LINE
  5
9A
330
2
100
AcDbEntity
  8
HB_PANELS
 62
     8
100
AcDbLine
 10
-17.72666540941282
 20
1871.624384158349
 30
0.0
 11
-17.72666540941282
 21
1947.124384158342
 31
0.0
  0
LINE
  5
9B
330
2
100
AcDbEntity
  8
HB_PANELS
 62
     8
100
AcDbLine
 10
-17.72666540941282
 20
1871.624384158349
 30
0.0
 11
-28.55198295671289
 21
1877.874384158342
 31
0.0
  0
LINE
  5
9C
330
2
100
AcDbEntity
  8
HB_PANELS
 62
     8
100
AcDbLine
 10
-79.62250558035885
 20
1848.388804173927
 30
0.0
 11
-28.55198295671289
 21
1877.874384158342
 31
0.0
  0
LINE
  5
9D
330
2
100
AcDbEntity
  8
HB_PANELS
 62
     8
100
AcDbLine
 10
-28.55198295671289
 20
1877.874384158342
 30
0.0
 11
-28.55198295671289
 21
1940.874384158349
 31
0.0
  0
LINE
  5
9E
330
2
100
AcDbEntity
  8
HB_PANELS
 62
     8
100
AcDbLine
 10
-17.72666540941282
 20
1909.124384158342
 30
0.0
 11
-28.55198295671289
 21
1915.374384158334
 31
0.0
  0
LINE
  5
9F
330
2
100
AcDbEntity
  8
HB_PANELS
 62
     8
100
AcDbLine
 10
-17.72666540941282
 20
1909.124384158349
 30
0.0
 11
44.21530656019604
 21
1944.886598349141
 31
0.0
  0
LINE
  5
A0
330
2
100
AcDbEntity
  8
HB_PANELS
100
AcDbLine
 10
-60.55548641699715
 20
1752.147152820544
 30
0.0
 11
-12.58427997070248
 21
1779.843341775668
 31
0.0
  0
LINE
  5
A1
330
2
100
AcDbEntity
  8
HB_PANELS
 62
     8
100
AcDbLine
 10
-256.7581770187753
 20
1860.758285990771
 30
0.0
 11
44.21530656019604
 21
2034.525407754045
 31
0.0
  0
LINE
  5
A2
330
2
100
AcDbEntity
  8
HB_PANELS
 62
     8
100
AcDbLine
 10
-264.8704735167783
 20
1868.574649423906
 30
0.0
 11
33.38998901287414
 21
2040.775407754036
 31
0.0
  0
LINE
  5
A4
330
2
100
AcDbEntity
  8
HB_PANELS
 62
     8
100
AcDbLine
 10
683.308932441585
 20
2045.835423047138
 30
0.0
 11
659.4368897035626
 21
2059.617953348042
 31
0.0
  0
LINE
  5
A5
330
2
100
AcDbEntity
  8
HB_PANELS
 62
     8
100
AcDbLine
 10
586.2014820758995
 20
2139.400435656083
 30
0.0
 11
562.329439337896
 21
2153.182965956976
 31
0.0
  0
LINE
  5
A6
330
2
100
AcDbEntity
  8
HB_PANELS
 62
     8
100
AcDbLine
 10
489.094031710214
 20
2232.965448265037
 30
0.0
 11
481.326138078075
 21
2237.450243744584
 31
0.0
  0
LINE
  5
A7
330
2
100
AcDbEntity
  8
HB_PANELS
 62
     8
100
AcDbLine
 10
305.7044485261504
 20
2351.345473482936
 30
0.0
 11
294.879130978843
 21
2345.095473482936
 31
0.0
  0
LINE
  5
A8
330
2
100
AcDbEntity
  8
HB_PANELS
 62
     8
100
AcDbLine
 10
208.5969981604794
 20
2369.910486091882
 30
0.0
 11
197.7716806131793
 21
2363.660486091882
 31
0.0
  0
LINE
  5
A9
330
2
100
AcDbEntity
  8
HB_PANELS
 62
     8
100
AcDbLine
 10
111.4895477947939
 20
2388.475498700834
 30
0.0
 11
100.6642302474865
 21
2382.225498700835
 31
0.0
  0
LINE
  5
AA
330
2
100
AcDbEntity
  8
HB_PANELS
 62
     8
100
AcDbLine
 10
499.9193492575214
 20
2239.215448265037
 30
0.0
 11
489.094031710214
 21
2232.965448265037
 31
0.0
  0
LINE
  5
AB
330
2
100
AcDbEntity
  8
HB_PANELS
 62
     8
100
AcDbLine
 10
597.0267996231996
 20
2145.650435656083
 30
0.0
 11
586.2014820758995
 21
2139.400435656083
 31
0.0
  0
LINE
  5
AC
330
2
100
AcDbEntity
  8
HB_PANELS
 62
     8
100
AcDbLine
 10
694.1342499888924
 20
2052.085423047138
 30
0.0
 11
683.308932441585
 21
2045.835423047138
 31
0.0
  0
LINE
  5
AD
330
2
100
AcDbEntity
  8
HB_PANELS
100
AcDbLine
 10
585.6175852324683
 20
1856.483686869428
 30
0.0
 11
574.7922676851609
 21
1862.733686869421
 31
0.0
  0
LINE
  5
AE
330
2
100
AcDbEntity
  8
HB_PANELS
100
AcDbLine
 10
569.3796089115072
 20
1859.608686869421
 30
0.0
 11
580.2049264588146
 21
1865.858686869428
 31
0.0
  0
LINE
  5
AF
330
2
100
AcDbEntity
  8
HB_PANELS
100
AcDbLine
 10
569.3796089115094
 20
1859.608686869422
 30
0.0
 11
569.3796089115058
 21
1842.928272220539
 31
0.0
  0
LINE
  5
B0
330
2
100
AcDbEntity
  8
HB_PANELS
100
AcDbLine
 10
580.2049264588146
 20
1853.358686869428
 30
0.0
 11
591.030244006122
 21
1859.608686869428
 31
0.0
  0
LINE
  5
B1
330
2
100
AcDbEntity
  8
HB_PANELS
100
AcDbLine
 10
580.2049264588145
 20
1853.358686869428
 30
0.0
 11
580.2049264588131
 21
1849.178272220546
 31
0.0
  0
LINE
  5
B2
330
2
100
AcDbEntity
  8
HB_PANELS
100
AcDbLine
 10
591.0302440061218
 20
1859.608686869428
 30
0.0
 11
591.0302440061204
 21
1855.428272220546
 31
0.0
  0
LINE
  5
B3
330
2
100
AcDbEntity
  8
HB_PANELS
100
AcDbLine
 10
769.5910652599632
 20
1962.700825087057
 30
0.0
 11
769.5910652599632
 21
1958.520410438177
 31
0.0
  0
LINE
  5
B4
330
2
100
AcDbEntity
  8
HB_PANELS
100
AcDbLine
 10
758.7657477126558
 20
1956.450825087064
 30
0.0
 11
758.7657477126558
 21
1952.270410438177
 31
0.0
  0
LINE
  5
B5
330
2
100
AcDbEntity
  8
HB_PANELS
100
AcDbLine
 10
758.7657477126558
 20
1956.450825087064
 30
0.0
 11
747.9404301653557
 21
1962.700825087057
 31
0.0
  0
LINE
  5
B6
330
2
100
AcDbEntity
  8
HB_PANELS
100
AcDbLine
 10
747.9404301653527
 20
1962.700825087058
 30
0.0
 11
747.9404301653485
 21
1946.02041043817
 31
0.0
  0
LINE
  5
B7
330
2
100
AcDbEntity
  8
HB_PANELS
 62
     8
100
AcDbLine
 10
679.6859562732829
 20
2010.427149313168
 30
0.0
 11
584.8158597082247
 21
2065.200425103058
 31
0.0
  0
LINE
  5
B8
330
2
100
AcDbEntity
  8
HB_PANELS
 62
     8
100
AcDbLine
 10
780.416382807256
 20
1952.270410438192
 30
0.0
 11
489.094031710214
 21
2232.965448265037
 31
0.0
  0
LINE
  5
B9
330
2
100
AcDbEntity
  8
HB_PANELS
100
AcDbLine
 10
769.5910652599632
 20
1962.700825087057
 30
0.0
 11
758.7657477126558
 21
1968.950825087049
 31
0.0
  0
LINE
  5
BA
330
2
100
AcDbEntity
  8
HB_PANELS
100
AcDbLine
 10
384.2706407432182
 20
1740.235974268038
 30
0.0
 11
384.2706407432182
 21
1736.055559619161
 31
0.0
  0
LINE
  5
BB
330
2
100
AcDbEntity
  8
HB_PANELS
100
AcDbLine
 10
369.3891749469147
 20
1737.8941559846
 30
0.0
 11
378.8579819695645
 21
1743.360974268031
 31
0.0
  0
LINE
  5
BC
330
2
100
AcDbEntity
  8
HB_PANELS
100
AcDbLine
 10
384.2706407432182
 20
1740.235974268038
 30
0.0
 11
373.4453231959109
 21
1746.485974268031
 31
0.0
  0
LINE
  5
C3
330
2
100
AcDbEntity
  8
HB_PANELS
100
AcDbLine
 10
-256.7581770187826
 20
1877.438700639661
 30
0.0
 11
-267.58349456609
 21
1883.688700639646
 31
0.0
  0
LINE
  5
C4
330
2
100
AcDbEntity
  8
HB_PANELS
100
AcDbLine
 10
-271.6396428150859
 20
1875.096882356223
 30
0.0
 11
-262.1708357924363
 21
1880.563700639653
 31
0.0
  0
LINE
  5
C5
330
2
100
AcDbEntity
  8
HB_PANELS
100
AcDbLine
 10
-256.7581770187826
 20
1877.438700639661
 30
0.0
 11
-256.7581770187826
 21
1873.258285990761
 31
0.0
  0
LINE
  5
C7
330
2
100
AcDbEntity
  8
HB_PANELS
100
AcDbLine
 10
27.97733023922046
 20
2048.080822402933
 30
0.0
 11
38.80264778652781
 21
2054.330822402926
 31
0.0
  0
LINE
  5
C8
330
2
100
AcDbEntity
  8
HB_PANELS
100
AcDbLine
 10
44.21530656018147
 20
2051.205822402926
 30
0.0
 11
33.38998901287413
 21
2057.455822402918
 31
0.0
  0
LINE
  5
C9
330
2
100
AcDbEntity
  8
HB_PANELS
100
AcDbLine
 10
33.38998901287413
 20
2044.955822402933
 30
0.0
 11
22.56467146556678
 21
2051.205822402926
 31
0.0
  0
LINE
  5
CA
330
2
100
AcDbEntity
  8
HB_PANELS
100
AcDbLine
 10
22.56467146556678
 20
2051.205822402926
 30
0.0
 11
22.56467146556679
 21
2034.525407754035
 31
0.0
  0
LINE
  5
CD
330
2
100
AcDbEntity
  8
HB_PANELS
100
AcDbLine
 10
481.326138078075
 20
2240.449972499781
 30
0.0
 11
470.5008205307749
 21
2246.699972499773
 31
0.0
  0
LINE
  5
CE
330
2
100
AcDbEntity
  8
HB_PANELS
100
AcDbLine
 10
459.6755029834628
 20
2240.449972499776
 30
0.0
 11
459.6755029834621
 21
2237.450243744599
 31
0.0
  0
LINE
  5
CF
330
2
100
AcDbEntity
  8
HB_PANELS
100
AcDbLine
 10
470.5008205307749
 20
2234.199972499788
 30
0.0
 11
459.6755029834675
 21
2240.449972499773
 31
0.0
  0
LINE
  5
D0
330
2
100
AcDbEntity
  8
HB_PANELS
100
AcDbLine
 10
470.5008205307739
 20
2234.199972499789
 30
0.0
 11
470.5008205307604
 21
1890.700243744606
 31
0.0
  0
LINE
  5
D1
330
2
100
AcDbEntity
  8
HB_PANELS
100
AcDbLine
 10
481.326138078075
 20
2240.449972499781
 30
0.0
 11
481.326138078075
 21
2231.231301848824
 31
0.0
  0
LINE
  5
D2
330
2
100
AcDbEntity
  8
HB_PANELS
 62
     8
100
AcDbLine
 10
470.5008205307749
 20
2243.700243744586
 30
0.0
 11
465.221988972235
 21
2246.747978565916
 31
0.0
  0
LINE
  5
D3
330
2
100
AcDbEntity
  8
HB_PANELS
 62
     8
100
AcDbLine
 10
489.094031710214
 20
2232.965448265037
 30
0.0
 11
391.9865813445358
 21
2326.530460873982
 31
0.0
  0
LINE
  5
D4
330
2
100
AcDbEntity
  8
HB_PANELS
 62
     8
100
AcDbLine
 10
499.9193492575159
 20
2239.215448265034
 30
0.0
 11
402.8118988918358
 21
2332.780460873983
 31
0.0
  0
LINE
  5
D5
330
2
100
AcDbEntity
  8
HB_PANELS
 62
     8
100
AcDbLine
 10
438.024867888839
 20
2224.950243744595
 30
0.0
 11
276.8514720525082
 21
2318.003747216916
 31
0.0
  0
LINE
  5
D6
330
2
100
AcDbEntity
  8
HB_PANELS
 62
     8
100
AcDbLine
 10
405.5489152469291
 20
2206.200243744599
 30
0.0
 11
233.6838997630039
 21
2305.426556698527
 31
0.0
  0
LINE
  5
D7
330
2
100
AcDbEntity
  8
HB_PANELS
 62
     8
100
AcDbLine
 10
373.0729626050181
 20
2187.450243744601
 30
0.0
 11
233.6838997630039
 21
2267.926556698534
 31
0.0
  0
LINE
  5
D8
330
2
100
AcDbEntity
  8
HB_PANELS
 62
     8
100
AcDbLine
 10
481.326138078075
 20
2084.450243744607
 30
0.0
 11
734.517036406738
 21
1938.270410438199
 31
0.0
  0
LINE
  5
D9
330
2
100
AcDbEntity
  8
HB_PANELS
 62
     8
100
AcDbLine
 10
481.326138078075
 20
2009.450243744621
 30
0.0
 11
669.5651311229084
 21
1900.770410438199
 31
0.0
  0
LINE
  5
DA
330
2
100
AcDbEntity
  8
HB_PANELS
 62
     8
100
AcDbLine
 10
481.326138078075
 20
1971.950243744613
 30
0.0
 11
637.0891784809864
 21
1882.020410438199
 31
0.0
  0
LINE
  5
DB
330
2
100
AcDbEntity
  8
HB_PANELS
 62
     8
100
AcDbLine
 10
481.326138078075
 20
2046.950243744614
 30
0.0
 11
702.0410837648159
 21
1919.520410438199
 31
0.0
  0
LINE
  5
DC
330
2
100
AcDbEntity
  8
HB_PANELS
 62
     8
100
AcDbLine
 10
481.326138078075
 20
1934.450243744613
 30
0.0
 11
604.6132258390782
 21
1863.270410438205
 31
0.0
  0
LINE
  5
DE
330
2
100
AcDbEntity
  8
HB_PANELS
100
AcDbLine
 10
470.5008205307676
 20
1896.950243744613
 30
0.0
 11
475.913479304414
 21
1900.075243744613
 31
0.0
  0
LINE
  5
DF
330
2
100
AcDbEntity
  8
HB_PANELS
 62
     8
100
AcDbLine
 10
475.913479304414
 20
1900.075243744613
 30
0.0
 11
569.3796089115058
 21
1846.112548655852
 31
0.0
  0
LINE
  5
E0
330
2
100
AcDbEntity
  8
HB_PANELS
 62
     8
100
AcDbLine
 10
44.21530656020081
 20
2034.525407754032
 30
0.0
 11
33.38998901287892
 21
2040.775407754039
 31
0.0
  0
LINE
  5
E1
330
2
100
AcDbEntity
  8
HB_PANELS
100
AcDbLine
 10
222.8585822156965
 20
2346.364369596033
 30
0.0
 11
212.0332646683891
 21
2352.614369596025
 31
0.0
  0
LINE
  5
E2
330
2
100
AcDbEntity
  8
HB_PANELS
100
AcDbLine
 10
233.6838997630038
 20
2352.614369596025
 30
0.0
 11
222.8585822156965
 21
2358.864369596018
 31
0.0
  0
LINE
  5
E3
330
2
100
AcDbEntity
  8
HB_PANELS
100
AcDbLine
 10
233.6838997630038
 20
2352.614369596025
 30
0.0
 11
233.6838997630038
 21
2347.57611359395
 31
0.0
  0
LINE
  5
E4
330
2
100
AcDbEntity
  8
HB_PANELS
100
AcDbLine
 10
222.8585822156965
 20
2346.364369596033
 30
0.0
 11
222.8585822156908
 21
2100.723930790668
 31
0.0
  0
LINE
  5
E5
330
2
100
AcDbEntity
  8
HB_PANELS
100
AcDbLine
 10
212.0332646683848
 20
2352.614369596028
 30
0.0
 11
212.0332646683404
 21
2094.473930790643
 31
0.0
  0
LINE
  5
E7
330
2
100
AcDbEntity
  8
HB_PANELS
 62
     8
100
AcDbLine
 10
208.5969981604794
 20
2369.910486091882
 30
0.0
 11
14.38209742911268
 21
2407.040511309782
 31
0.0
  0
LINE
  5
E8
330
2
100
AcDbEntity
  8
HB_PANELS
 62
     8
100
AcDbLine
 10
197.7716806131814
 20
2363.660486091883
 30
0.0
 11
3.556779881809928
 21
2400.790511309784
 31
0.0
  0
LINE
  5
E9
330
2
100
AcDbEntity
  8
HB_PANELS
 62
     8
100
AcDbLine
 10
219.881348913006
 20
2350.89546314727
 30
0.0
 11
197.7716806131793
 21
2363.660486091882
 31
0.0
  0
LINE
  5
EA
330
2
100
AcDbEntity
  8
HB_PANELS
 62
     8
100
AcDbLine
 10
212.0332646683819
 20
2317.926556698541
 30
0.0
 11
179.7440216868393
 21
2336.568759825865
 31
0.0
  0
LINE
  5
EB
330
2
100
AcDbEntity
  8
HB_PANELS
 62
     8
100
AcDbLine
 10
212.0332646683746
 20
2280.426556698541
 30
0.0
 11
82.63657132116076
 21
2355.133772434815
 31
0.0
  0
LINE
  5
EC
330
2
100
AcDbEntity
  8
HB_PANELS
 62
     8
100
AcDbLine
 10
233.6838997630039
 20
2227.426556698541
 30
0.0
 11
337.9989337517605
 21
2167.200243744608
 31
0.0
  0
LINE
  5
ED
330
2
100
AcDbEntity
  8
HB_PANELS
 62
     8
100
AcDbLine
 10
233.6838997630039
 20
2189.926556698541
 30
0.0
 11
305.5229811098451
 21
2148.450243744608
 31
0.0
  0
LINE
  5
EE
330
2
100
AcDbEntity
  8
HB_PANELS
 62
     8
100
AcDbLine
 10
233.6838997630039
 20
2152.426556698549
 30
0.0
 11
273.0470284679348
 21
2129.700243744611
 31
0.0
  0
LINE
  5
EF
330
2
100
AcDbEntity
  8
HB_PANELS
 62
     8
100
AcDbLine
 10
233.6838997630039
 20
2114.926556698542
 30
0.0
 11
240.5710758260122
 21
2110.950243744608
 31
0.0
  0
LINE
  5
F2
330
2
100
AcDbEntity
  8
HB_PANELS
100
AcDbLine
 10
14.38209742911664
 20
2386.220925958673
 30
0.0
 11
3.556779881809287
 21
2392.470925958673
 31
0.0
  0
LINE
  5
F3
330
2
100
AcDbEntity
  8
HB_PANELS
100
AcDbLine
 10
25.20741497642303
 20
2392.470925958662
 30
0.0
 11
25.20741497642303
 21
2387.432669956596
 31
0.0
  0
LINE
  5
F4
330
2
100
AcDbEntity
  8
HB_PANELS
100
AcDbLine
 10
25.20741497641671
 20
2392.470925958665
 30
0.0
 11
14.38209742910936
 21
2398.720925958665
 31
0.0
  0
LINE
  5
F5
330
2
100
AcDbEntity
  8
HB_PANELS
100
AcDbLine
 10
3.5567798818156
 20
2392.470925958669
 30
0.0
 11
3.5567798818156
 21
2160.290511309795
 31
0.0
  0
LINE
  5
F6
330
2
100
AcDbEntity
  8
HB_PANELS
100
AcDbLine
 10
14.38209742912295
 20
2154.040511309788
 30
0.0
 11
3.5567798818156
 21
2160.290511309795
 31
0.0
  0
LINE
  5
F7
330
2
100
AcDbEntity
  8
HB_PANELS
100
AcDbLine
 10
14.38209742911567
 20
2160.290511309795
 30
0.0
 11
19.79475620276207
 21
2163.415511309795
 31
0.0
  0
LINE
  5
F8
330
2
100
AcDbEntity
  8
HB_PANELS
100
AcDbLine
 10
-191.1620253486253
 20
2035.36955669371
 30
0.0
 11
-180.3367078013252
 21
2041.61955669371
 31
0.0
  0
LINE
  5
F9
330
2
100
AcDbEntity
  8
HB_PANELS
100
AcDbLine
 10
-191.1620253486253
 20
2041.61955669371
 30
0.0
 11
-196.5746841222717
 21
2044.744556693709
 31
0.0
  0
LINE
  5
FA
330
2
100
AcDbEntity
  8
HB_PANELS
100
AcDbLine
 10
-201.9873428959327
 20
2273.799971342599
 30
0.0
 11
-201.9873428959327
 21
2041.619556693717
 31
0.0
  0
LINE
  5
FB
330
2
100
AcDbEntity
  8
HB_PANELS
100
AcDbLine
 10
-201.9873428959327
 20
2273.799971342599
 30
0.0
 11
-191.1620253486253
 21
2280.049971342592
 31
0.0
  0
LINE
  5
FC
330
2
100
AcDbEntity
  8
HB_PANELS
100
AcDbLine
 10
-180.3367078013252
 20
2273.799971342592
 30
0.0
 11
-180.3367078013252
 21
2041.61955669371
 31
0.0
  0
LINE
  5
FD
330
2
100
AcDbEntity
  8
HB_PANELS
100
AcDbLine
 10
-191.1620253486253
 20
2267.549971342599
 30
0.0
 11
-180.3367078013252
 21
2273.799971342592
 31
0.0
  0
LINE
  5
FE
330
2
100
AcDbEntity
  8
HB_PANELS
100
AcDbLine
 10
-185.7493665749716
 20
2270.674971342592
 30
0.0
 11
-196.574684122279
 21
2276.924971342592
 31
0.0
  0
LINE
  5
FF
330
2
100
AcDbEntity
  8
HB_PANELS
100
AcDbLine
 10
-191.1620253486253
 20
2267.549971342599
 30
0.0
 11
-191.1620253486253
 21
2035.36955669371
 31
0.0
  0
LINE
  5
101
330
2
100
AcDbEntity
  8
HB_PANELS
 62
     8
100
AcDbLine
 10
-191.1620253486253
 20
2275.869556693705
 30
0.0
 11
3.556779881815601
 21
2388.290511309781
 31
0.0
  0
LINE
  5
102
330
2
100
AcDbEntity
  8
HB_PANELS
 62
     8
100
AcDbLine
 10
-180.3367078013252
 20
2241.619556693709
 30
0.0
 11
3.5567798818156
 21
2347.790511309781
 31
0.0
  0
LINE
  5
103
330
2
100
AcDbEntity
  8
HB_PANELS
 62
     8
100
AcDbLine
 10
-180.3367078013252
 20
2204.11955669371
 30
0.0
 11
3.5567798818156
 21
2310.290511309788
 31
0.0
  0
LINE
  5
104
330
2
100
AcDbEntity
  8
HB_PANELS
 62
     8
100
AcDbLine
 10
-180.3367078013252
 20
2166.619556693702
 30
0.0
 11
3.556779881808324
 21
2272.79051130978
 31
0.0
  0
LINE
  5
105
330
2
100
AcDbEntity
  8
HB_PANELS
 62
     8
100
AcDbLine
 10
-180.3367078013252
 20
2129.119556693702
 30
0.0
 11
3.5567798818156
 21
2235.290511309781
 31
0.0
  0
LINE
  5
106
330
2
100
AcDbEntity
  8
HB_PANELS
 62
     8
100
AcDbLine
 10
-180.3367078013252
 20
2091.619556693702
 30
0.0
 11
3.5567798818156
 21
2197.790511309781
 31
0.0
  0
LINE
  5
107
330
2
100
AcDbEntity
  8
HB_PANELS
 62
     8
100
AcDbLine
 10
-180.3367078013252
 20
2054.119556693702
 30
0.0
 11
3.5567798818156
 21
2160.290511309781
 31
0.0
  0
LINE
  5
108
330
2
100
AcDbEntity
  8
HB_PANELS
100
AcDbLine
 10
-397.1087006201633
 20
2148.646602935873
 30
0.0
 11
-397.1087006201633
 21
1933.312895094677
 31
0.0
  0
LINE
  5
109
330
2
100
AcDbEntity
  8
HB_PANELS
100
AcDbLine
 10
-397.1087006201633
 20
2148.646602935873
 30
0.0
 11
-386.2833830728559
 21
2154.896602935866
 31
0.0
  0
LINE
  5
10A
330
2
100
AcDbEntity
  8
HB_PANELS
100
AcDbLine
 10
-386.2833830728559
 20
2154.896602935866
 30
0.0
 11
-386.2833830728559
 21
1931.243309743557
 31
0.0
  0
LINE
  5
10B
330
2
100
AcDbEntity
  8
HB_PANELS
100
AcDbLine
 10
-407.9340181674633
 20
2154.896602935874
 30
0.0
 11
-397.1087006201633
 21
2161.146602935867
 31
0.0
  0
LINE
  5
10C
330
2
100
AcDbEntity
  8
HB_PANELS
100
AcDbLine
 10
-407.9340181674634
 20
2154.896602935874
 30
0.0
 11
-407.9340181674633
 21
1935.382480445798
 31
0.0
  0
LINE
  5
10D
330
2
100
AcDbEntity
  8
HB_PANELS
 62
     8
100
AcDbLine
 10
-386.2833830728559
 20
1922.923724392436
 30
0.0
 11
-386.2833830728559
 21
1922.716188286984
 31
0.0
  0
LINE
  5
10F
330
2
100
AcDbEntity
  8
HB_PANELS
 62
     8
100
AcDbLine
 10
-397.108700620156
 20
2156.96618828698
 30
0.0
 11
-201.9873428959327
 21
2269.619556693702
 31
0.0
  0
LINE
  5
110
330
2
100
AcDbEntity
  8
HB_PANELS
 62
     8
100
AcDbLine
 10
-386.2833830728559
 20
2122.716188286977
 30
0.0
 11
-201.9873428959327
 21
2229.119556693702
 31
0.0
  0
LINE
  5
111
330
2
100
AcDbEntity
  8
HB_PANELS
 62
     8
100
AcDbLine
 10
-386.2833830728559
 20
2085.216188286977
 30
0.0
 11
-201.9873428959327
 21
2191.619556693702
 31
0.0
  0
LINE
  5
112
330
2
100
AcDbEntity
  8
HB_PANELS
 62
     8
100
AcDbLine
 10
-386.2833830728559
 20
2047.716188286969
 30
0.0
 11
-201.9873428959327
 21
2154.119556693702
 31
0.0
  0
LINE
  5
113
330
2
100
AcDbEntity
  8
HB_PANELS
 62
     8
100
AcDbLine
 10
-386.2833830728559
 20
2010.216188286977
 30
0.0
 11
-201.9873428959327
 21
2116.619556693702
 31
0.0
  0
LINE
  5
114
330
2
100
AcDbEntity
  8
HB_PANELS
 62
     8
100
AcDbLine
 10
-386.2833830728559
 20
1972.716188286977
 30
0.0
 11
-201.9873428959327
 21
2079.119556693703
 31
0.0
  0
LINE
  5
115
330
2
100
AcDbEntity
  8
HB_PANELS
100
AcDbLine
 10
-671.9118106666254
 20
1989.988953376375
 30
0.0
 11
-671.9118106666243
 21
1985.849782674128
 31
0.0
  0
LINE
  5
116
330
2
100
AcDbEntity
  8
HB_PANELS
100
AcDbLine
 10
-671.9118106666303
 20
1989.988953376378
 30
0.0
 11
-682.7371282139304
 21
1996.23895337637
 31
0.0
  0
LINE
  5
11A
330
2
100
AcDbEntity
  8
HB_PANELS
 62
     8
100
AcDbLine
 10
-715.2130808558504
 20
1985.808538727491
 30
0.0
 11
14.38209742911266
 21
2407.040511309782
 31
0.0
  0
LINE
  5
11B
330
2
100
AcDbEntity
  8
HB_PANELS
 62
     8
100
AcDbLine
 10
-688.1229539904816
 20
1988.949030765592
 30
0.0
 11
-682.7371282139377
 21
1992.058538727488
 31
0.0
  0
LINE
  5
11F
330
2
100
AcDbEntity
  8
HB_PANELS
100
AcDbLine
 10
-441.9203000591005
 20
1946.019152106761
 30
0.0
 11
-452.7456176064005
 21
1952.269152106746
 31
0.0
  0
LINE
  5
120
330
2
100
AcDbEntity
  8
HB_PANELS
100
AcDbLine
 10
-441.9203000591005
 20
1946.019152106761
 30
0.0
 11
-441.9203000591005
 21
1941.879981404512
 31
0.0
  0
CIRCLE
  5
125
330
2
100
AcDbEntity
  8
DEFPOINTS
 62
     6
100
AcDbCircle
 10
-425.0539570011096
 20
1542.722881644993
 30
0.0
 40
17.45342274086433
  0
TEXT
  5
126
330
2
100
AcDbEntity
  8
HB_DIMS
100
AcDbText
 10
-436.7792196538066
 20
1533.561923724235
 30
0.0
 40
20.0
  1
A
  7
ARIAL
100
AcDbText
  0
LINE
  5
127
330
2
100
AcDbEntity
  8
HB_DIMS
  6
HIDDEN
100
AcDbLine
 10
-375.0777392567834
 20
1501.56417248959
 30
0.0
 11
-375.0777392567834
 21
1516.989672549847
 31
0.0
  0
LINE
  5
129
330
2
100
AcDbEntity
  8
HB_DIMS
100
AcDbLine
 10
-368.3983017976498
 20
1513.133297534783
 30
0.0
 11
-375.0777392567834
 21
1516.989672549847
 31
0.0
  0
LINE
  5
12A
330
2
100
AcDbEntity
  8
HB_DIMS
100
AcDbLine
 10
-368.3983017976498
 20
1513.133297534783
 30
0.0
 11
-375.0777392567834
 21
1501.56417248959
 31
0.0
  0
LINE
  5
12B
330
2
100
AcDbEntity
  8
HB_DIMS
  6
HIDDEN2
 48
0.1
100
AcDbLine
 10
-399.0561140178034
 20
1495.433001396719
 30
0.0
 11
-375.0777392567834
 21
1509.276922519719
 31
0.0
  0
LINE
  5
12D
330
2
100
AcDbEntity
  8
HB_DIMS
  6
HIDDEN2
 48
0.1
100
AcDbLine
 10
-399.0561140178034
 20
1495.433001396719
 30
0.0
 11
-399.0561140178034
 21
1596.827283074599
 31
0.0
  0
LINE
  5
12E
330
2
100
AcDbEntity
  8
HB_DIMS
  6
HIDDEN2
 48
0.1
100
AcDbLine
 10
-399.0561140178034
 20
1596.827283074599
 30
0.0
 11
-375.0777392567834
 21
1610.671204197599
 31
0.0
  0
LINE
  5
12F
330
2
100
AcDbEntity
  8
HB_DIMS
100
AcDbLine
 10
-368.3983017976498
 20
1614.527579212663
 30
0.0
 11
-375.0777392567834
 21
1602.95845416747
 31
0.0
  0
LINE
  5
130
330
2
100
AcDbEntity
  8
HB_DIMS
100
AcDbLine
 10
-368.3983017976498
 20
1614.527579212663
 30
0.0
 11
-375.0777392567834
 21
1618.383954227727
 31
0.0
  0
LINE
  5
131
330
2
100
AcDbEntity
  8
HB_DIMS
  6
HIDDEN
100
AcDbLine
 10
-375.0777392567834
 20
1602.95845416747
 30
0.0
 11
-375.0777392567834
 21
1618.383954227727
 31
0.0
  0
LINE
  5
132
330
2
100
AcDbEntity
  8
HB_DIMS
  6
HIDDEN2
 48
0.1
100
AcDbLine
 10
616.5444203991792
 20
1761.867967076497
 30
0.0
 11
629.3578964579937
 21
1769.265830928314
 31
0.0
  0
LINE
  5
133
330
2
100
AcDbEntity
  8
HB_DIMS
  6
HIDDEN2
100
AcDbLine
 10
616.5444203991792
 20
1761.867967076497
 30
0.0
 11
614.663099099198
 21
1770.352012287279
 31
0.0
  0
LINE
  5
134
330
2
100
AcDbEntity
  8
HB_DIMS
  6
HIDDEN2
100
AcDbLine
 10
614.663099099198
 20
1770.352012287279
 30
0.0
 11
629.3578964579937
 21
1769.265830928314
 31
0.0
  0
LINE
  5
135
330
2
100
AcDbEntity
  8
HB_DIMS
  6
HIDDEN2
100
AcDbLine
 10
546.7715927057652
 20
1731.154832795357
 30
0.0
 11
561.4663900645609
 21
1730.068651436391
 31
0.0
  0
LINE
  5
136
330
2
100
AcDbEntity
  8
HB_DIMS
  6
HIDDEN2
100
AcDbLine
 10
548.6529140057464
 20
1722.670787584575
 30
0.0
 11
546.7715927057652
 21
1731.154832795357
 31
0.0
  0
LINE
  5
137
330
2
100
AcDbEntity
  8
HB_DIMS
  6
HIDDEN2
 48
0.1
100
AcDbLine
 10
548.6529140057464
 20
1722.670787584575
 30
0.0
 11
561.4663900645609
 21
1730.068651436391
 31
0.0
  0
CIRCLE
  5
138
330
2
100
AcDbEntity
  8
DEFPOINTS
 62
     6
100
AcDbCircle
 10
621.226658216161
 20
1706.241471762725
 30
0.0
 40
17.45342274086433
  0
TEXT
  5
139
330
2
100
AcDbEntity
  8
HB_DIMS
100
AcDbText
 10
611.8367050571687
 20
1696.203411783863
 30
0.0
 40
20.0
  1
C
  7
ARIAL
100
AcDbText
  0
LINE
  5
13A
330
2
100
AcDbEntity
  8
HB_DIMS
  6
HIDDEN2
 48
0.1
100
AcDbLine
 10
555.0596520351464
 20
1726.369719510476
 30
0.0
 11
582.0925257763083
 21
1710.762282579046
 31
0.0
  0
LINE
  5
13B
330
2
100
AcDbEntity
  8
HB_DIMS
  6
HIDDEN2
 48
0.1
100
AcDbLine
 10
622.9511584285792
 20
1765.566899002398
 30
0.0
 11
649.9840321697338
 21
1749.959462070961
 31
0.0
  0
LINE
  5
13C
330
2
100
AcDbEntity
  8
HB_DIMS
  6
HIDDEN2
 48
0.1
100
AcDbLine
 10
582.0925257763083
 20
1710.762282579046
 30
0.0
 11
649.9840321697338
 21
1749.959462070961
 31
0.0
  0
LINE
  5
13D
330
2
100
AcDbEntity
  8
HB_PANELS
 62
     8
100
AcDbLine
 10
635.3395549566267
 20
1716.510264825418
 30
0.0
 11
791.2417003545706
 21
1806.52041043817
 31
0.0
  0
LINE
  5
13E
330
2
100
AcDbEntity
  8
HB_DIMS
  6
HIDDEN
100
AcDbLine
 10
618.5080178830394
 20
2131.717030128867
 30
0.0
 11
618.5080178830394
 21
2147.142530189124
 31
0.0
  0
LINE
  5
13F
330
2
100
AcDbEntity
  8
HB_DIMS
100
AcDbLine
 10
625.187455342173
 20
2143.28615517406
 30
0.0
 11
618.5080178830394
 21
2147.142530189124
 31
0.0
  0
LINE
  5
140
330
2
100
AcDbEntity
  8
HB_DIMS
100
AcDbLine
 10
625.187455342173
 20
2143.28615517406
 30
0.0
 11
618.5080178830394
 21
2131.717030128867
 31
0.0
  0
LINE
  5
141
330
2
100
AcDbEntity
  8
HB_DIMS
  6
HIDDEN2
 48
0.1
100
AcDbLine
 10
594.5296431220194
 20
2125.585859035996
 30
0.0
 11
618.5080178830394
 21
2139.429780158996
 31
0.0
  0
LINE
  5
142
330
2
100
AcDbEntity
  8
HB_DIMS
  6
HIDDEN2
 48
0.1
100
AcDbLine
 10
594.5296431220194
 20
2024.191577358116
 30
0.0
 11
594.5296431220194
 21
2125.585859035996
 31
0.0
  0
LINE
  5
143
330
2
100
AcDbEntity
  8
HB_DIMS
  6
HIDDEN2
 48
0.1
100
AcDbLine
 10
594.5296431220194
 20
2024.191577358116
 30
0.0
 11
618.5080178830394
 21
2038.035498481116
 31
0.0
  0
LINE
  5
144
330
2
100
AcDbEntity
  8
HB_DIMS
100
AcDbLine
 10
625.187455342173
 20
2041.891873496179
 30
0.0
 11
618.5080178830394
 21
2030.322748450987
 31
0.0
  0
LINE
  5
145
330
2
100
AcDbEntity
  8
HB_DIMS
100
AcDbLine
 10
625.187455342173
 20
2041.891873496179
 30
0.0
 11
618.5080178830394
 21
2045.748248511244
 31
0.0
  0
LINE
  5
146
330
2
100
AcDbEntity
  8
HB_DIMS
  6
HIDDEN
100
AcDbLine
 10
618.5080178830394
 20
2030.322748450987
 30
0.0
 11
618.5080178830394
 21
2045.748248511244
 31
0.0
  0
TEXT
  5
147
330
2
100
AcDbEntity
  8
HB_DIMS
100
AcDbText
 10
561.4352813253499
 20
2062.783182609691
 30
0.0
 40
20.0
  1
E
  7
ARIAL
100
AcDbText
  0
CIRCLE
  5
148
330
2
100
AcDbEntity
  8
DEFPOINTS
 62
     6
100
AcDbCircle
 10
568.5318001387131
 20
2071.48145760639
 30
0.0
 40
17.45342274086433
  0
LINE
  5
149
330
2
100
AcDbEntity
  8
HB_DIMS
  6
HIDDEN2
 48
0.1
100
AcDbLine
 10
342.1749525300474
 20
1599.647788498885
 30
0.0
 11
354.988428588862
 21
1607.045652350702
 31
0.0
  0
LINE
  5
14A
330
2
100
AcDbEntity
  8
HB_DIMS
  6
HIDDEN2
100
AcDbLine
 10
342.1749525300474
 20
1599.647788498885
 30
0.0
 11
340.2936312300663
 21
1608.131833709667
 31
0.0
  0
LINE
  5
14B
330
2
100
AcDbEntity
  8
HB_DIMS
  6
HIDDEN2
100
AcDbLine
 10
340.2936312300663
 20
1608.131833709667
 30
0.0
 11
354.988428588862
 21
1607.045652350702
 31
0.0
  0
LINE
  5
14C
330
2
100
AcDbEntity
  8
HB_DIMS
  6
HIDDEN2
 48
0.1
100
AcDbLine
 10
416.4731969528802
 20
1642.543899916709
 30
0.0
 11
443.5060706940348
 21
1626.936462985272
 31
0.0
  0
LINE
  5
14D
330
2
100
AcDbEntity
  8
HB_DIMS
  6
HIDDEN2
100
AcDbLine
 10
408.185137623499
 20
1647.32901320159
 30
0.0
 11
422.8799349822947
 21
1646.242831842624
 31
0.0
  0
LINE
  5
14E
330
2
100
AcDbEntity
  8
HB_DIMS
  6
HIDDEN2
100
AcDbLine
 10
410.0664589234802
 20
1638.844967990808
 30
0.0
 11
408.185137623499
 21
1647.32901320159
 31
0.0
  0
LINE
  5
14F
330
2
100
AcDbEntity
  8
HB_DIMS
  6
HIDDEN2
 48
0.1
100
AcDbLine
 10
410.0664589234802
 20
1638.844967990808
 30
0.0
 11
422.8799349822947
 21
1646.242831842624
 31
0.0
  0
LINE
  5
150
330
2
100
AcDbEntity
  8
HB_DIMS
  6
HIDDEN2
 48
0.1
100
AcDbLine
 10
375.6145643006093
 20
1587.739283493356
 30
0.0
 11
443.5060706940348
 21
1626.936462985272
 31
0.0
  0
CIRCLE
  5
151
330
2
100
AcDbEntity
  8
DEFPOINTS
 62
     6
100
AcDbCircle
 10
414.748696740462
 20
1583.218472677035
 30
0.0
 40
17.45342274086433
  0
TEXT
  5
152
330
2
100
AcDbEntity
  8
HB_DIMS
100
AcDbText
 10
403.7815460036072
 20
1573.915756675051
 30
0.0
 40
20.0
  1
B
  7
ARIAL
100
AcDbText
  0
LINE
  5
153
330
2
100
AcDbEntity
  8
HB_DIMS
  6
HIDDEN2
 48
0.1
100
AcDbLine
 10
348.5816905594475
 20
1603.346720424786
 30
0.0
 11
375.6145643006093
 21
1587.739283493356
 31
0.0
  0
LINE
  5
154
330
2
100
AcDbEntity
  8
HB_PANELS
 62
     8
100
AcDbLine
 10
426.6245163617204
 20
1596.008581108734
 30
0.0
 11
605.2771741874312
 21
1699.153741195849
 31
0.0
  0
LINE
  5
155
330
2
100
AcDbEntity
  8
HB_PANELS
100
AcDbLine
 10
149.1364387875146
 20
1808.810354413996
 30
0.0
 11
149.1364387875146
 21
1639.962842284214
 31
0.0
  0
TEXT
  5
156
330
2
100
AcDbEntity
  8
HB_DIMS
100
AcDbText
 10
88.69102086572093
 20
1673.639124424313
 30
0.0
 40
20.0
  1
D
  7
ARIAL
100
AcDbText
  0
CIRCLE
  5
157
330
2
100
AcDbEntity
  8
DEFPOINTS
 62
     6
100
AcDbCircle
 10
99.47454392567307
 20
1682.123995114671
 30
0.0
 40
17.45342274086433
  0
LINE
  5
158
330
2
100
AcDbEntity
  8
HB_DIMS
  6
HIDDEN2
 48
0.1
100
AcDbLine
 10
77.99551471549057
 20
1720.672273586438
 30
0.0
 11
154.8706414059343
 21
1676.288398497709
 31
0.0
  0
LINE
  5
159
330
2
100
AcDbEntity
  8
HB_DIMS
  6
HIDDEN2
 48
0.1
100
AcDbLine
 10
77.99551471549057
 20
1720.672273586438
 30
0.0
 11
101.5643189853435
 21
1734.279729076101
 31
0.0
  0
LINE
  5
15A
330
2
100
AcDbEntity
  8
HB_DIMS
  6
HIDDEN2
 48
0.1
100
AcDbLine
 10
95.60621690814878
 20
1737.719640914256
 30
0.0
 11
107.5224210625529
 21
1730.839817237975
 31
0.0
  0
LINE
  5
15B
330
2
100
AcDbEntity
  8
HB_DIMS
  6
HIDDEN2
100
AcDbLine
 10
107.5224210625529
 20
1730.839817237975
 30
0.0
 11
109.3601227121617
 21
1738.780638456337
 31
0.0
  0
LINE
  5
15C
330
2
100
AcDbEntity
  8
HB_DIMS
  6
HIDDEN2
100
AcDbLine
 10
109.3601227121617
 20
1738.780638456337
 30
0.0
 11
95.60621690814878
 21
1737.719640914256
 31
0.0
  0
LINE
  5
15D
330
2
100
AcDbEntity
  8
HB_DIMS
  6
HIDDEN2
 48
0.1
100
AcDbLine
 10
172.4813435985925
 20
1693.335765825526
 30
0.0
 11
184.3975477529966
 21
1686.455942149245
 31
0.0
  0
LINE
  5
15E
330
2
100
AcDbEntity
  8
HB_DIMS
  6
HIDDEN2
100
AcDbLine
 10
186.2352494026054
 20
1694.396763367607
 30
0.0
 11
172.4813435985925
 21
1693.335765825526
 31
0.0
  0
LINE
  5
15F
330
2
100
AcDbEntity
  8
HB_DIMS
  6
HIDDEN2
100
AcDbLine
 10
184.3975477529966
 20
1686.455942149245
 30
0.0
 11
186.2352494026054
 21
1694.396763367607
 31
0.0
  0
LINE
  5
160
330
2
100
AcDbEntity
  8
HB_DIMS
  6
HIDDEN2
 48
0.1
100
AcDbLine
 10
154.8706414059343
 20
1676.288398497709
 30
0.0
 11
178.4394456757873
 21
1689.895853987371
 31
0.0
  0
LINE
  5
161
330
2
100
AcDbEntity
  8
HB_PANELS
 62
     8
100
AcDbLine
 10
86.02516165460839
 20
1693.247667255571
 30
0.0
 11
44.21530656020332
 21
1717.386598349105
 31
0.0
  0
LINE
  5
162
330
2
100
AcDbEntity
  8
HB_PANELS
100
AcDbLine
 10
-658.2801538106359
 20
1724.938297972177
 30
0.0
 11
-658.2801538106359
 21
1920.701748553824
 31
0.0
  0
LINE
  5
163
330
2
100
AcDbEntity
  8
HB_PANELS
100
AcDbLine
 10
-658.2801538106359
 20
1920.701748553824
 30
0.0
 11
-510.4444053540428
 21
1835.348739386558
 31
0.0
  0
LINE
  5
164
330
2
100
AcDbEntity
  8
HB_PANELS
100
AcDbLine
 10
-510.4444053540573
 20
1639.585288804912
 30
0.0
 11
-510.4444053540428
 21
1835.348739386558
 31
0.0
  0
LINE
  5
165
330
2
100
AcDbEntity
  8
HB_PANELS
 62
     8
100
AcDbLine
 10
-510.4444053540428
 20
1829.585288804941
 30
0.0
 11
-267.5834945660827
 21
1689.369476585867
 31
0.0
  0
LINE
  5
166
330
2
100
AcDbEntity
  8
HB_PANELS
100
AcDbLine
 10
-515.8507129265417
 20
1832.706621937242
 30
0.0
 11
-510.4444053540428
 21
1835.348739386558
 31
0.0
  0
LINE
  5
167
330
2
100
AcDbEntity
  8
HB_PANELS
100
AcDbLine
 10
-653.856781600487
 20
1912.384462835944
 30
0.0
 11
-515.8507129265417
 21
1832.706621937235
 31
0.0
  0
LINE
  5
168
330
2
100
AcDbEntity
  8
HB_PANELS
100
AcDbLine
 10
-653.856781600487
 20
1912.384462835944
 30
0.0
 11
-658.2801538106359
 21
1920.701748553824
 31
0.0
  0
TEXT
  5
169
330
2
100
AcDbEntity
  8
HB_DIMS
100
AcDbText
 10
-551.0888971393724
 20
1714.31297168466
 30
0.0
 40
20.0
  1
D
  7
ARIAL
100
AcDbText
  0
CIRCLE
  5
16A
330
2
100
AcDbEntity
  8
DEFPOINTS
 62
     6
100
AcDbCircle
 10
-542.9409585339962
 20
1725.055635794691
 30
0.0
 40
17.45342274086433
  0
LINE
  5
16B
330
2
100
AcDbEntity
  8
HB_DIMS
  6
HIDDEN2
 48
0.1
100
AcDbLine
 10
-476.4659912131974
 20
1714.961329927799
 30
0.0
 11
-452.8971869433444
 21
1728.568785417461
 31
0.0
  0
LINE
  5
16C
330
2
100
AcDbEntity
  8
HB_DIMS
  6
HIDDEN2
100
AcDbLine
 10
-446.939084866135
 20
1725.128873579335
 30
0.0
 11
-445.1013832165263
 21
1733.069694797697
 31
0.0
  0
LINE
  5
16D
330
2
100
AcDbEntity
  8
HB_DIMS
  6
HIDDEN2
100
AcDbLine
 10
-445.1013832165263
 20
1733.069694797697
 30
0.0
 11
-458.8552890205392
 21
1732.008697255616
 31
0.0
  0
LINE
  5
16E
330
2
100
AcDbEntity
  8
HB_DIMS
  6
HIDDEN2
 48
0.1
100
AcDbLine
 10
-458.8552890205392
 20
1732.008697255616
 30
0.0
 11
-446.939084866135
 21
1725.128873579335
 31
0.0
  0
LINE
  5
16F
330
2
100
AcDbEntity
  8
HB_DIMS
  6
HIDDEN2
 48
0.1
100
AcDbLine
 10
-553.3411179036411
 20
1759.345205016529
 30
0.0
 11
-476.4659912131974
 21
1714.961329927799
 31
0.0
  0
LINE
  5
170
330
2
100
AcDbEntity
  8
HB_DIMS
  6
HIDDEN2
100
AcDbLine
 10
-521.97650990697
 20
1777.453569886427
 30
0.0
 11
-535.7304157109829
 21
1776.392572344346
 31
0.0
  0
LINE
  5
171
330
2
100
AcDbEntity
  8
HB_DIMS
  6
HIDDEN2
100
AcDbLine
 10
-523.8142115565787
 20
1769.512748668065
 30
0.0
 11
-521.97650990697
 21
1777.453569886427
 31
0.0
  0
LINE
  5
172
330
2
100
AcDbEntity
  8
HB_DIMS
  6
HIDDEN2
 48
0.1
100
AcDbLine
 10
-535.7304157109829
 20
1776.392572344346
 30
0.0
 11
-523.8142115565787
 21
1769.512748668065
 31
0.0
  0
LINE
  5
173
330
2
100
AcDbEntity
  8
HB_DIMS
  6
HIDDEN2
 48
0.1
100
AcDbLine
 10
-553.3411179036411
 20
1759.345205016529
 30
0.0
 11
-529.7723136337881
 21
1772.952660506191
 31
0.0
  0
LINE
  5
174
330
2
100
AcDbEntity
  8
HB_PANELS
100
AcDbLine
 10
-64.86456244069995
 20
1616.409306618261
 30
0.0
 11
-64.86456244069995
 21
1755.122173286872
 31
0.0
  0
LINE
  5
175
330
2
100
AcDbEntity
  8
HB_PANELS
100
AcDbLine
 10
-8.254152951783908
 20
1649.093341775617
 30
0.0
 11
-8.254152951776632
 21
1787.806208444235
 31
0.0
  0
LINE
  5
176
330
2
100
AcDbEntity
  8
HB_PANELS
100
AcDbLine
 10
-64.86456244069995
 20
1755.122173286872
 30
0.0
 11
-8.254152951776632
 21
1787.806208444235
 31
0.0
  0
LINE
  5
177
330
2
100
AcDbEntity
  8
HB_PANELS
100
AcDbLine
 10
-64.86456244069995
 20
1755.122173286872
 30
0.0
 11
-60.55548641699715
 21
1752.147152820544
 31
0.0
  0
LINE
  5
178
330
2
100
AcDbEntity
  8
HB_PANELS
100
AcDbLine
 10
-12.58427997070248
 20
1779.843341775668
 30
0.0
 11
-8.254152951776632
 21
1787.806208444235
 31
0.0
  0
TEXT
  5
179
330
2
100
AcDbEntity
  8
HB_XDET_TEXT
 62
     6
100
AcDbText
 10
-762.6145926196549
 20
2367.499270010994
 30
-1200.0
 40
15.0
  1
%%USECTION REFERENCES
  7
ROMANS
100
AcDbText
  0
TEXT
  5
17B
330
2
100
AcDbEntity
  8
HB_XDET_TEXT
 62
     6
100
AcDbText
 10
-775.4360015882921
 20
2335.865321354257
 30
-1200.0
 40
15.0
  1
A=19.2.1
  7
ROMANS
100
AcDbText
  0
TEXT
  5
17C
330
2
100
AcDbEntity
  8
HB_XDET_TEXT
 62
     6
100
AcDbText
 10
-779.9287908628976
 20
2311.579607068539
 30
-1200.0
 40
15.0
  1
B=19.2.4
  7
ROMANS
100
AcDbText
  0
TEXT
  5
17D
330
2
100
AcDbEntity
  8
HB_XDET_TEXT
 62
     6
100
AcDbText
 10
-778.945397207739
 20
2287.293892782829
 30
-1200.0
 40
15.0
  1
C=19.2.3
  7
ROMANS
100
AcDbText
  0
TEXT
  5
17E
330
2
100
AcDbEntity
  8
HB_XDET_TEXT
 62
     6
100
AcDbText
 10
-602.798770615409
 20
2335.801939387973
 30
-1200.0
 40
15.0
  1
D=19.2.9
  7
ROMANS
100
AcDbText
  0
TEXT
  5
17F
330
2
100
AcDbEntity
  8
HB_XDET_TEXT
 62
     6
100
AcDbText
 10
-602.2411691379239
 20
2311.516225102256
 30
-1200.0
 40
15.0
  1
E=19.2.11
  7
ROMANS
100
AcDbText
  0
LINE
  5
180
330
2
100
AcDbEntity
  8
HB_XDET_TEXT
 62
     6
100
AcDbLine
 10
-789.7502324426823
 20
2391.958944821177
 30
-1200.0
 11
-481.6259878553973
 21
2391.958944821177
 31
-1200.0
  0
LINE
  5
181
330
2
100
AcDbEntity
  8
HB_XDET_TEXT
 62
     6
100
AcDbLine
 10
-481.6259878553974
 20
2391.958944821177
 30
-1200.0
 11
-481.6259878553974
 21
2270.62867355386
 31
-1200.0
  0
LINE
  5
182
330
2
100
AcDbEntity
  8
HB_XDET_TEXT
 62
     6
100
AcDbLine
 10
-481.6259878553973
 20
2270.62867355386
 30
-1200.0
 11
-789.7502324426823
 21
2270.62867355386
 31
-1200.0
  0
LINE
  5
183
330
2
100
AcDbEntity
  8
HB_XDET_TEXT
 62
     6
100
AcDbLine
 10
-789.7502324426823
 20
2270.62867355386
 30
-1200.0
 11
-789.7502324426823
 21
2391.958944821177
 31
-1200.0
  0
LINE
  5
185
330
2
100
AcDbEntity
  8
HB_PANELS
100
AcDbLine
 10
580.2049264588146
 20
1865.858686869428
 30
0.0
 11
580.2049264588146
 21
1859.608686869428
 31
0.0
  0
LINE
  5
186
330
2
100
AcDbEntity
  8
HB_PANELS
100
AcDbLine
 10
574.792267685163
 20
1862.733686869425
 30
0.0
 11
574.7922676851594
 21
1846.053272220539
 31
0.0
  0
LINE
  5
187
330
2
100
AcDbEntity
  8
HB_PANELS
100
AcDbLine
 10
-191.1620253486253
 20
2280.049971342592
 30
0.0
 11
-191.1620253486253
 21
2273.799971342592
 31
0.0
  0
LINE
  5
188
330
2
100
AcDbEntity
  8
HB_PANELS
100
AcDbLine
 10
-196.574684122279
 20
2276.924971342594
 30
0.0
 11
-196.574684122279
 21
2044.744556693709
 31
0.0
  0
LINE
  5
189
330
2
100
AcDbEntity
  8
HB_PANELS
100
AcDbLine
 10
-391.6960418465023
 20
2151.771602935866
 30
0.0
 11
-402.5213593938096
 21
2158.021602935866
 31
0.0
  0
LINE
  5
18A
330
2
100
AcDbEntity
  8
HB_PANELS
100
AcDbLine
 10
-402.5213593938095
 20
2158.021602935872
 30
0.0
 11
-402.5213593938096
 21
1934.347687770234
 31
0.0
  0
LINE
  5
18B
330
2
100
AcDbEntity
  8
HB_PANELS
100
AcDbLine
 10
-397.108700620156
 20
2161.146602935867
 30
0.0
 11
-397.108700620156
 21
2154.896602935866
 31
0.0
  0
LINE
  5
18C
330
2
100
AcDbEntity
  8
HB_PANELS
100
AcDbLine
 10
378.8579819695645
 20
1743.360974268034
 30
0.0
 11
378.8579819695645
 21
1732.930559619161
 31
0.0
  0
LINE
  5
18D
330
2
100
AcDbEntity
  8
HB_PANELS
100
AcDbLine
 10
373.4453231959109
 20
1746.485974268031
 30
0.0
 11
373.4453231959109
 21
1740.235974268038
 31
0.0
  0
LINE
  5
18E
330
2
100
AcDbEntity
  8
HB_PANELS
100
AcDbLine
 10
38.80264778652781
 20
2054.330822402926
 30
0.0
 11
38.80264778652781
 21
2048.080822402924
 31
0.0
  0
LINE
  5
18F
330
2
100
AcDbEntity
  8
HB_PANELS
100
AcDbLine
 10
33.38998901287413
 20
2057.455822402918
 30
0.0
 11
33.38998901286686
 21
2051.205822402926
 31
0.0
  0
LINE
  5
190
330
2
100
AcDbEntity
  8
HB_PANELS
100
AcDbLine
 10
-262.1708357924363
 20
1880.563700639653
 30
0.0
 11
-262.1708357924363
 21
1870.133285990769
 31
0.0
  0
LINE
  5
191
330
2
100
AcDbEntity
  8
HB_PANELS
100
AcDbLine
 10
-267.58349456609
 20
1883.688700639646
 30
0.0
 11
-267.58349456609
 21
1877.438700639661
 31
0.0
  0
LINE
  5
192
330
2
100
AcDbEntity
  8
HB_PANELS
100
AcDbLine
 10
-452.7456176064078
 20
1952.269152106746
 30
0.0
 11
-452.7456176064078
 21
1946.019152106761
 31
0.0
  0
LINE
  5
193
330
2
100
AcDbEntity
  8
HB_PANELS
100
AcDbLine
 10
-455.4385304946817
 20
1944.464398125805
 30
0.0
 11
-447.3329588327542
 21
1949.144152106753
 31
0.0
  0
LINE
  5
194
330
2
100
AcDbEntity
  8
HB_PANELS
100
AcDbLine
 10
-447.3329588327542
 20
1949.144152106756
 30
0.0
 11
-447.3329588327542
 21
1942.914774080069
 31
0.0
  0
LINE
  5
195
330
2
100
AcDbEntity
  8
HB_PANELS
100
AcDbLine
 10
-685.4300411022112
 20
1988.434199395422
 30
0.0
 11
-677.324469440284
 21
1993.11395337637
 31
0.0
  0
LINE
  5
196
330
2
100
AcDbEntity
  8
HB_PANELS
100
AcDbLine
 10
-682.7371282139377
 20
1996.238953376363
 30
0.0
 11
-682.7371282139377
 21
1989.988953376378
 31
0.0
  0
LINE
  5
197
330
2
100
AcDbEntity
  8
HB_PANELS
100
AcDbLine
 10
-677.3244694402794
 20
1993.113953376374
 30
0.0
 11
-677.3244694402778
 21
1986.884575349689
 31
0.0
  0
LINE
  5
198
330
2
100
AcDbEntity
  8
HB_PANELS
100
AcDbLine
 10
758.7657477126558
 20
1968.950825087049
 30
0.0
 11
758.7657477126558
 21
1962.700825087057
 31
0.0
  0
LINE
  5
199
330
2
100
AcDbEntity
  8
HB_PANELS
100
AcDbLine
 10
753.3530889390021
 20
1959.575825087049
 30
0.0
 11
764.1784064863095
 21
1965.825825087049
 31
0.0
  0
LINE
  5
19A
330
2
100
AcDbEntity
  8
HB_PANELS
100
AcDbLine
 10
764.1784064863096
 20
1965.825825087053
 30
0.0
 11
764.1784064863095
 21
1955.39541043817
 31
0.0
  0
LINE
  5
19B
330
2
100
AcDbEntity
  8
HB_PANELS
100
AcDbLine
 10
465.088161757114
 20
2237.324972499773
 30
0.0
 11
475.9134793044213
 21
2243.574972499773
 31
0.0
  0
LINE
  5
19C
330
2
100
AcDbEntity
  8
HB_PANELS
100
AcDbLine
 10
470.5008205307749
 20
2246.699972499773
 30
0.0
 11
470.5008205307749
 21
2240.449972499781
 31
0.0
  0
LINE
  5
19D
330
2
100
AcDbEntity
  8
HB_PANELS
100
AcDbLine
 10
475.9134793044213
 20
2243.574972499779
 30
0.0
 11
475.9134793044213
 21
2236.446509173265
 31
0.0
  0
LINE
  5
19E
330
2
100
AcDbEntity
  8
HB_PANELS
100
AcDbLine
 10
222.8585822156965
 20
2358.864369596018
 30
0.0
 11
222.8585822156965
 21
2352.614369596025
 31
0.0
  0
LINE
  5
19F
330
2
100
AcDbEntity
  8
HB_PANELS
100
AcDbLine
 10
217.4459234420428
 20
2349.489369596018
 30
0.0
 11
228.2712409893502
 21
2355.739369596018
 31
0.0
  0
LINE
  5
1A0
330
2
100
AcDbEntity
  8
HB_PANELS
100
AcDbLine
 10
228.2712409893502
 20
2355.739369596018
 30
0.0
 11
228.2712409893502
 21
2348.610906269511
 31
0.0
  0
LINE
  5
1A2
330
2
100
AcDbEntity
  8
HB_PANELS
100
AcDbLine
 10
8.969438655455686
 20
2389.345925958658
 30
0.0
 11
19.79475620276303
 21
2395.595925958658
 31
0.0
  0
LINE
  5
1A3
330
2
100
AcDbEntity
  8
HB_PANELS
100
AcDbLine
 10
14.38209742911567
 20
2398.720925958662
 30
0.0
 11
14.38209742911567
 21
2392.470925958662
 31
0.0
  0
LINE
  5
1A4
330
2
100
AcDbEntity
  8
HB_PANELS
100
AcDbLine
 10
19.79475620276886
 20
2395.595925958662
 30
0.0
 11
19.79475620276865
 21
2388.467462632157
 31
0.0
  0
MTEXT
  5
BE4
330
2
100
AcDbEntity
  8
HB_TEXT
100
AcDbMText
 10
42876.17445676073
 20
55871.92700740256
 30
0.0
 40
25.0
 41
1427.0
 71
     5
 72
     5
  1
{\L\C2;DETAIL 1.1.1 - HORIZONTAL WALL PANELS - ISOMETRIC MODEL DETAIL}
  7
ROMANS
 73
     1
 44
1.0
  0
MTEXT
  5
1021
330
2
100
AcDbEntity
  8
HB_TEXT
100
AcDbMText
 10
42876.17445676073
 20
54470.88363846004
 30
0.0
 40
25.0
 41
1427.0
 71
     5
 72
     5
  1
{\L\C2;DETAIL 1.1.2 - VERTICAL WALL PANELS - ISOMETRIC MODEL DETAIL}
  7
ROMANS
 73
     1
 44
1.0
  0
LINE
  5
1425
330
2
100
AcDbEntity
  8
HB_PANELS
 62
     8
100
AcDbLine
 10
7.177125166106227
 20
2390.380718634225
 30
0.0
 11
14.38209742911567
 21
2394.540511309777
 31
0.0
  0
LINE
  5
142D
330
2
100
AcDbEntity
  8
HB_PANELS
 62
     8
100
AcDbLine
 10
-679.1167829296483
 20
1994.148746051932
 30
0.0
 11
-407.9340181674633
 21
2150.71618828697
 31
0.0
  0
LINE
  5
1430
330
2
100
AcDbEntity
  8
HB_PANELS
 62
     8
100
AcDbLine
 10
44.21530656018147
 20
2051.205822402926
 30
0.0
 11
33.38998901287414
 21
2044.955822402924
 31
0.0
  0
LINE
  5
1437
330
2
100
AcDbEntity
  8
HB_PANELS
 62
     8
100
AcDbLine
 10
33.38998901287414
 20
2044.955822402926
 30
0.0
 11
33.38998901286686
 21
2040.775407754032
 31
0.0
  0
LINE
  5
143A
330
2
100
AcDbEntity
  8
HB_PANELS
 62
     8
100
AcDbLine
 10
149.1364387875146
 20
1705.160431437184
 30
0.0
 11
161.5850925046942
 21
1712.347665011846
 31
0.0
  0
LINE
  5
143B
330
2
100
AcDbEntity
  8
HB_PANELS
 62
     8
100
AcDbLine
 10
283.4447463916996
 20
1820.703368986858
 30
0.0
 11
291.9399992768307
 21
1825.608105526923
 31
0.0
  0
LINE
  5
143C
330
2
100
AcDbEntity
  8
HB_PANELS
 62
     8
100
AcDbLine
 10
234.1219836838508
 20
1868.226858660305
 30
0.0
 11
291.9399992768555
 21
1901.608105526936
 31
0.0
  0
LINE
  5
143D
330
2
100
AcDbEntity
  8
HB_PANELS
 62
     8
100
AcDbLine
 10
209.4606023299261
 20
1891.988603497029
 30
0.0
 11
291.9399992768679
 21
1939.608105526944
 31
0.0
  0
LINE
  5
143E
330
2
100
AcDbEntity
  8
HB_PANELS
 62
     8
100
AcDbLine
 10
184.7992209760017
 20
1915.750348333752
 30
0.0
 11
291.9399992768802
 21
1977.60810552695
 31
0.0
  0
LINE
  5
143F
330
2
100
AcDbEntity
  8
HB_PANELS
 62
     8
100
AcDbLine
 10
160.1378396220771
 20
1939.512093170476
 30
0.0
 11
291.9399992768926
 21
2015.608105526959
 31
0.0
  0
LINE
  5
1441
330
2
100
AcDbEntity
  8
HB_PANELS
 62
     8
100
AcDbLine
 10
258.7833650377832
 20
1844.465113823574
 30
0.0
 11
291.9399992768431
 21
1863.608105526919
 31
0.0
  0
LINE
  5
1442
330
2
100
AcDbEntity
  8
HB_PANELS
 62
     8
100
AcDbLine
 10
470.5008205307692
 20
2231.200243744598
 30
0.0
 11
459.6755029834765
 21
2237.450243744591
 31
0.0
  0
LINE
  5
1443
330
2
100
AcDbEntity
  8
HB_PANELS
 62
     8
100
AcDbLine
 10
87.12717114006869
 20
2009.859364068666
 30
0.0
 11
291.9399992769294
 21
2128.108105526973
 31
0.0
  0
LINE
  5
1444
330
2
100
AcDbEntity
  8
HB_PANELS
 62
     8
100
AcDbLine
 10
79.01487464206535
 20
2017.6757275018
 30
0.0
 11
286.5273405032784
 21
2137.483105526977
 31
0.0
  0
LINE
  5
1445
330
2
100
AcDbEntity
  8
HB_PANELS
 62
     8
100
AcDbLine
 10
135.8009501280774
 20
1962.96118346987
 30
0.0
 11
291.9399992769049
 21
2053.108105526959
 31
0.0
  0
LINE
  5
1446
330
2
100
AcDbEntity
  8
HB_PANELS
 62
     8
100
AcDbLine
 10
111.464060634073
 20
1986.410273769268
 30
0.0
 11
291.9399992769172
 21
2090.608105526966
 31
0.0
  0
LINE
  5
1447
330
2
100
AcDbEntity
  8
HB_PANELS
 62
     8
100
AcDbLine
 10
293.7323127663205
 20
2133.323312851404
 30
0.0
 11
286.5273405032784
 21
2137.483105526977
 31
0.0
  0
LINE
  5
1448
330
2
100
AcDbEntity
  8
HB_PANELS
100
AcDbLine
 10
297.3526580505845
 20
2135.413520175833
 30
0.0
 11
286.5273405032772
 21
2141.663520175825
 31
0.0
  0
LINE
  5
1449
330
2
100
AcDbEntity
  8
HB_PANELS
100
AcDbLine
 10
281.1146817296235
 20
2138.538520175826
 30
0.0
 11
291.9399992769308
 21
2144.788520175833
 31
0.0
  0
LINE
  5
144A
330
2
100
AcDbEntity
  8
HB_PANELS
100
AcDbLine
 10
281.1146817296257
 20
2138.538520175826
 30
0.0
 11
281.1146817296247
 21
2134.358105526977
 31
0.0
  0
LINE
  5
144B
330
2
100
AcDbEntity
  8
HB_PANELS
100
AcDbLine
 10
291.9399992769308
 20
2132.288520175833
 30
0.0
 11
302.7653168242382
 21
2138.538520175833
 31
0.0
  0
LINE
  5
144C
330
2
100
AcDbEntity
  8
HB_PANELS
100
AcDbLine
 10
291.9399992769307
 20
2132.288520175833
 30
0.0
 11
291.9399992768264
 21
1812.518019249841
 31
0.0
  0
LINE
  5
144D
330
2
100
AcDbEntity
  8
HB_PANELS
100
AcDbLine
 10
302.7653168242381
 20
2138.538520175833
 30
0.0
 11
302.7653168241283
 21
1802.087604600965
 31
0.0
  0
LINE
  5
144E
330
2
100
AcDbEntity
  8
HB_PANELS
100
AcDbLine
 10
291.9399992769308
 20
2144.788520175833
 30
0.0
 11
291.9399992769308
 21
2140.608105526977
 31
0.0
  0
LINE
  5
144F
330
2
100
AcDbEntity
  8
HB_PANELS
100
AcDbLine
 10
286.5273405032793
 20
2141.66352017583
 30
0.0
 11
286.5273405032784
 21
2137.483105526977
 31
0.0
  0
LINE
  5
1450
330
2
100
AcDbEntity
  8
HB_PANELS
 62
     8
100
AcDbLine
 10
302.765316824138
 20
1831.858105526924
 30
0.0
 11
470.5008205307619
 21
1928.700243744601
 31
0.0
  0
LINE
  5
1451
330
2
100
AcDbEntity
  8
HB_PANELS
 62
     8
100
AcDbLine
 10
302.7653168241504
 20
1869.85810552692
 30
0.0
 11
470.5008205307634
 21
1966.7002437446
 31
0.0
  0
LINE
  5
1452
330
2
100
AcDbEntity
  8
HB_PANELS
 62
     8
100
AcDbLine
 10
302.7653168241628
 20
1907.858105526938
 30
0.0
 11
470.5008205307649
 21
2004.700243744602
 31
0.0
  0
LINE
  5
1453
330
2
100
AcDbEntity
  8
HB_PANELS
 62
     8
100
AcDbLine
 10
302.7653168241752
 20
1945.858105526945
 30
0.0
 11
470.5008205307664
 21
2042.700243744604
 31
0.0
  0
LINE
  5
1454
330
2
100
AcDbEntity
  8
HB_PANELS
 62
     8
100
AcDbLine
 10
302.7653168241876
 20
1983.858105526952
 30
0.0
 11
470.5008205307678
 21
2080.700243744605
 31
0.0
  0
LINE
  5
1455
330
2
100
AcDbEntity
  8
HB_PANELS
 62
     8
100
AcDbLine
 10
302.7653168242
 20
2021.858105526959
 30
0.0
 11
470.5008205307692
 21
2118.700243744605
 31
0.0
  0
LINE
  5
1456
330
2
100
AcDbEntity
  8
HB_PANELS
 62
     8
100
AcDbLine
 10
302.7653168242122
 20
2059.35810552696
 30
0.0
 11
470.5008205307692
 21
2156.200243744598
 31
0.0
  0
LINE
  5
1457
330
2
100
AcDbEntity
  8
HB_PANELS
 62
     8
100
AcDbLine
 10
302.7653168242245
 20
2096.858105526967
 30
0.0
 11
470.5008205307692
 21
2193.700243744598
 31
0.0
  0
LINE
  5
1458
330
2
100
AcDbEntity
  8
HB_PANELS
 62
     8
100
AcDbLine
 10
302.7653168242367
 20
2134.358105526974
 30
0.0
 11
470.5008205307692
 21
2231.200243744598
 31
0.0
  0
LINE
  5
1459
330
2
100
AcDbEntity
  8
HB_PANELS
 62
     8
100
AcDbLine
 10
290.1476857875358
 20
2139.573312851402
 30
0.0
 11
459.6755029834423
 21
2237.450243744591
 31
0.0
  0
LINE
  5
145A
330
2
100
AcDbEntity
  8
HB_PANELS
100
AcDbLine
 10
126.3944747285091
 20
1631.940433485359
 30
0.0
 11
126.3944747285091
 21
1827.70388406699
 31
0.0
  0
LINE
  5
145B
330
2
100
AcDbEntity
  8
HB_PANELS
100
AcDbLine
 10
126.3944747285059
 20
1827.703884066992
 30
0.0
 11
257.8868942349654
 21
1751.786700268541
 31
0.0
  0
LINE
  5
145C
330
2
100
AcDbEntity
  8
HB_PANELS
100
AcDbLine
 10
130.8178469386548
 20
1819.386598349112
 30
0.0
 11
126.3944747285059
 21
1827.703884066992
 31
0.0
  0
LINE
  5
145D
330
2
100
AcDbEntity
  8
HB_PANELS
 62
     8
100
AcDbLine
 10
126.3944747285092
 20
1821.940433485366
 30
0.0
 11
44.21530656019604
 21
1869.386598349127
 31
0.0
  0
LINE
  5
145E
330
2
100
AcDbEntity
  8
HB_PANELS
100
AcDbLine
 10
257.8868942349509
 20
1556.02324968691
 30
0.0
 11
257.8868942349654
 21
1751.786700268556
 31
0.0
  0
LINE
  5
145F
330
2
100
AcDbEntity
  8
HB_PANELS
100
AcDbLine
 10
252.4805866624665
 20
1749.144582819241
 30
0.0
 11
257.8868942349654
 21
1751.786700268556
 31
0.0
  0
LINE
  5
1460
330
2
100
AcDbEntity
  8
HB_PANELS
100
AcDbLine
 10
252.4805866624593
 20
1749.144582819219
 30
0.0
 11
130.8178469386548
 21
1819.386598349113
 31
0.0
  0
LINE
  5
1461
330
2
100
AcDbEntity
  8
HB_PANELS
 62
     8
100
AcDbLine
 10
308.106127745622
 20
1796.941624150137
 30
0.0
 11
470.5008205307604
 21
1890.700243744601
 31
0.0
  0
LINE
  5
1462
330
2
100
AcDbEntity
  8
HB_PANELS
 62
     8
100
AcDbLine
 10
149.136438787516
 20
1743.160431437184
 30
0.0
 11
157.2760164809914
 21
1747.859818809602
 31
0.0
  0
LINE
  5
1463
330
2
100
AcDbEntity
  8
HB_PANELS
 62
     8
100
AcDbLine
 10
149.1364387875176
 20
1781.160431437184
 30
0.0
 11
157.2760164809914
 21
1785.859818809601
 31
0.0
  0
LINE
  5
1464
330
2
100
AcDbEntity
  8
HB_PANELS
100
AcDbLine
 10
209.5562989509889
 20
1740.043853966962
 30
0.0
 11
209.5562989509889
 21
1773.926931884212
 31
0.0
  0
LINE
  5
1465
330
2
100
AcDbEntity
  8
HB_PANELS
100
AcDbLine
 10
161.5850925046942
 20
1712.347665011846
 30
0.0
 11
161.5850925046943
 21
1801.623120839335
 31
0.0
  0
LINE
  5
1466
330
2
100
AcDbEntity
  8
HB_PANELS
100
AcDbLine
 10
198.7309814036888
 20
1780.176931884209
 30
0.0
 11
198.7309814036888
 21
1746.293853966955
 31
0.0
  0
LINE
  5
1467
330
2
100
AcDbEntity
  8
HB_PANELS
100
AcDbLine
 10
209.5562989509889
 20
1740.043853966962
 30
0.0
 11
198.7309814036888
 21
1746.293853966955
 31
0.0
  0
LINE
  5
1469
330
2
100
AcDbEntity
  8
HB_PANELS
100
AcDbLine
 10
157.2760164809914
 20
1709.859818809607
 30
0.0
 11
157.2760164809914
 21
1804.110967041578
 31
0.0
  0
LINE
  5
146A
330
2
100
AcDbEntity
  8
HB_PANELS
100
AcDbLine
 10
213.8864259699075
 20
1742.543853966963
 30
0.0
 11
213.886425969909
 21
1771.426931884213
 31
0.0
  0
LINE
  5
146E
330
2
100
AcDbEntity
  8
HB_PANELS
 62
     8
100
AcDbLine
 10
209.5562989509889
 20
1740.043853966964
 30
0.0
 11
238.8999051857311
 21
1756.985392925587
 31
0.0
  0
LINE
  5
1474
330
2
100
AcDbEntity
  8
HB_PANELS
100
AcDbLine
 10
758.7657477126558
 20
1963.912569084984
 30
0.0
 11
475.9134793044213
 21
2236.446509173265
 31
0.0
  0
LINE
  5
1475
330
2
100
AcDbEntity
  8
HB_PANELS
100
AcDbLine
 10
470.5008205307738
 20
2233.321509173268
 30
0.0
 11
475.9134793044213
 21
2236.446509173265
 31
0.0
  0
LINE
  5
1476
330
2
100
AcDbEntity
  8
HB_PANELS
100
AcDbLine
 10
747.9404301653485
 20
1957.662569084984
 30
0.0
 11
470.5008205307735
 21
2224.981301848819
 31
0.0
  0
LINE
  5
1477
330
2
100
AcDbEntity
  8
HB_PANELS
100
AcDbLine
 10
481.326138078075
 20
2201.550887199943
 30
0.0
 11
481.326138078075
 21
1896.950243744613
 31
0.0
  0
LINE
  5
1478
330
2
100
AcDbEntity
  8
HB_PANELS
100
AcDbLine
 10
475.9134793044214
 20
2206.766094524383
 30
0.0
 11
475.9134793044213
 21
1900.075243744613
 31
0.0
  0
LINE
  5
147A
330
2
100
AcDbEntity
  8
HB_PANELS
 62
     8
100
AcDbLine
 10
582.5785059075959
 20
2103.992161922123
 30
0.0
 11
481.326138078075
 21
2162.450243744585
 31
0.0
  0
LINE
  5
147B
330
2
100
AcDbEntity
  8
HB_PANELS
 62
     8
100
AcDbLine
 10
554.9502366440768
 20
2082.443350618662
 30
0.0
 11
481.326138078075
 21
2124.950243744592
 31
0.0
  0
LINE
  5
147C
330
2
100
AcDbEntity
  8
HB_PANELS
100
AcDbLine
 10
747.0592132330019
 20
1945.51163960507
 30
0.0
 11
470.5008205307735
 21
2211.981301848819
 31
0.0
  0
LINE
  5
147E
330
2
100
AcDbEntity
  8
HB_PANELS
100
AcDbLine
 10
470.5008205307749
 20
2241.661716497708
 30
0.0
 11
391.9865813445357
 21
2317.311790223037
 31
0.0
  0
LINE
  5
147F
330
2
100
AcDbEntity
  8
HB_PANELS
100
AcDbLine
 10
458.3525319877806
 20
2236.686426084116
 30
0.0
 11
381.1612637972285
 21
2311.061790223037
 31
0.0
  0
LINE
  5
1480
330
2
100
AcDbEntity
  8
HB_PANELS
100
AcDbLine
 10
449.9157436298587
 20
2231.815444054573
 30
0.0
 11
381.1612637972282
 21
2298.061790223036
 31
0.0
  0
LINE
  5
1484
330
2
100
AcDbEntity
  8
HB_PANELS
100
AcDbLine
 10
391.9865813445357
 20
2317.311790223037
 30
0.0
 11
228.2712409893502
 21
2348.610906269511
 31
0.0
  0
LINE
  5
1485
330
2
100
AcDbEntity
  8
HB_PANELS
100
AcDbLine
 10
381.1612637972284
 20
2311.061790223037
 30
0.0
 11
222.8585822156964
 21
2341.32611359395
 31
0.0
  0
LINE
  5
1487
330
2
100
AcDbEntity
  8
HB_PANELS
100
AcDbLine
 10
381.1612637972282
 20
2298.061790223036
 30
0.0
 11
222.8585822156961
 21
2328.326113593949
 31
0.0
  0
LINE
  5
1488
330
2
100
AcDbEntity
  8
HB_PANELS
100
AcDbLine
 10
381.1612637972284
 20
2311.061790223037
 30
0.0
 11
391.9865813445357
 21
2317.311790223037
 31
0.0
  0
LINE
  5
1489
330
2
100
AcDbEntity
  8
HB_PANELS
100
AcDbLine
 10
381.1612637972282
 20
2298.061790223036
 30
0.0
 11
389.5980521551512
 21
2302.932772252578
 31
0.0
  0
LINE
  5
148B
330
2
100
AcDbEntity
  8
HB_PANELS
100
AcDbLine
 10
389.3783522917878
 20
2303.144457560021
 30
0.0
 11
222.8585822156963
 21
2334.979724776499
 31
0.0
  0
LINE
  5
148C
330
2
100
AcDbEntity
  8
HB_PANELS
100
AcDbLine
 10
212.033264668381
 20
2330.395698945073
 30
0.0
 11
14.38209742911556
 21
2368.182669956595
 31
0.0
  0
LINE
  5
148D
330
2
100
AcDbEntity
  8
HB_PANELS
100
AcDbLine
 10
212.0332646683832
 20
2343.395698945073
 30
0.0
 11
14.38209742911567
 21
2381.182669956596
 31
0.0
  0
LINE
  5
148E
330
2
100
AcDbEntity
  8
HB_PANELS
100
AcDbLine
 10
218.9957932504352
 20
2350.384187347103
 30
0.0
 11
214.361474831803
 21
2351.27017683145
 31
0.0
  0
LINE
  5
148F
330
2
100
AcDbEntity
  8
HB_PANELS
100
AcDbLine
 10
212.0332646683846
 20
2351.715284296196
 30
0.0
 11
19.79475620276865
 21
2388.467462632157
 31
0.0
  0
LINE
  5
1490
330
2
100
AcDbEntity
  8
HB_PANELS
100
AcDbLine
 10
222.8585822156965
 20
2345.485906269511
 30
0.0
 11
228.271240989347
 21
2348.610906269509
 31
0.0
  0
LINE
  5
1491
330
2
100
AcDbEntity
  8
HB_PANELS
100
AcDbLine
 10
233.6838997630038
 20
2326.256528242827
 30
0.0
 11
233.6838997630039
 21
2106.973930790674
 31
0.0
  0
LINE
  5
1492
330
2
100
AcDbEntity
  8
HB_PANELS
100
AcDbLine
 10
228.2712409893502
 20
2327.291320918388
 30
0.0
 11
228.2712409893502
 21
2103.848930790673
 31
0.0
  0
LINE
  5
1493
330
2
100
AcDbEntity
  8
HB_PANELS
 62
     8
100
AcDbLine
 10
124.5362729854676
 20
2368.442968399955
 30
0.0
 11
100.6642302474865
 21
2382.225498700835
 31
0.0
  0
LINE
  5
1494
330
2
100
AcDbEntity
  8
HB_PANELS
100
AcDbLine
 10
212.0332646683821
 20
2337.049310127623
 30
0.0
 11
14.38209742911567
 21
2374.836281139145
 31
0.0
  0
LINE
  5
1495
330
2
100
AcDbEntity
  8
HB_PANELS
100
AcDbLine
 10
14.38209742911568
 20
2385.342462632157
 30
0.0
 11
19.79475620276865
 21
2388.467462632157
 31
0.0
  0
LINE
  5
1496
330
2
100
AcDbEntity
  8
HB_PANELS
100
AcDbLine
 10
25.20741497642303
 20
2366.113084605473
 30
0.0
 11
25.20741497642303
 21
2160.290511309781
 31
0.0
  0
LINE
  5
1497
330
2
100
AcDbEntity
  8
HB_PANELS
100
AcDbLine
 10
19.79475620276803
 20
2367.147877281035
 30
0.0
 11
19.79475620276207
 21
2163.415511309787
 31
0.0
  0
LINE
  5
1498
330
2
100
AcDbEntity
  8
HB_PANELS
 62
     8
100
AcDbLine
 10
318.7511737168275
 20
2331.312943182053
 30
0.0
 11
294.879130978843
 21
2345.095473482936
 31
0.0
  0
LINE
  5
1499
330
2
100
AcDbEntity
  8
HB_PANELS
 62
     8
100
AcDbLine
 10
27.42882261980235
 20
2387.007981008903
 30
0.0
 11
25.20741497642303
 21
2388.290511309788
 31
0.0
  0
LINE
  5
149A
330
2
100
AcDbEntity
  8
HB_PANELS
 62
     8
100
AcDbLine
 10
388.3636051762623
 20
2291.122187140002
 30
0.0
 11
373.9589224181952
 21
2299.438734607964
 31
0.0
  0
VIEWPORT
  5
1A9
330
1A8
100
AcDbEntity
 67
     1
  8
0
100
AcDbViewport
 10
830.4677055653208
 20
-24.34124316505893
 30
0.0
 40
464.5935969695845
 41
314.2596759643556
 68
     1
 69
     1
 12
830.4677055653208
 22
-24.34124316505893
 13
0.0
 23
0.0
 14
1.0
 24
1.0
 15
1900.0
 25
1900.0
 16
0.0
 26
0.0
 36
1.0
 17
0.0
 27
0.0
 37
0.0
 42
50.0
 43
0.0
 44
0.0
 45
314.2596759643556
 50
0.0
 51
0.0
 72
 20000
 90
    32768
  1

281
     0
 71
     1
 74
     0
110
0.0
120
0.0
130
0.0
111
1.0
121
0.0
131
0.0
112
0.0
122
1.0
132
0.0
 79
     0
146
0.0
170
     0
  0
VIEWPORT
  5
699
330
1A8
100
AcDbEntity
 67
     1
  8
DEFPOINTS
100
AcDbViewport
 10
830.1493274259104
 20
-4.013832727466535
 30
0.0
 40
185.7497931246362
 41
108.0523729625487
 68
     2
 69
     2
 12
-23188.09271827759
 22
-32164.05760544072
 13
0.0
 23
0.0
 14
1.0
 24
1.0
 15
1900.0
 25
1900.0
 16
0.0
 26
0.0
 36
1.0
 17
23187.54216236222
 27
34067.94128341666
 37
1200.0
 42
50.0
 43
0.0
 44
0.0
 45
1080.523729625487
 50
0.0
 51
0.0
 72
 20000
 90
    36864
  1

281
     0
 71
     1
 74
     0
110
0.0
120
0.0
130
0.0
111
1.0
121
0.0
131
0.0
112
0.0
122
1.0
132
0.0
 79
     0
146
0.0
170
     0
  0
INSERT
  5
12D0
330
1A8
100
AcDbEntity
 67
     1
  8
Border
100
AcDbBlockReference
 66
     1
  2
A4 Title Block
 10
790.0947461063899
 20
-142.1146595432695
 30
0.0
  0
ATTRIB
  5
12D1
330
12D0
100
AcDbEntity
 67
     1
  8
Title block
100
AcDbText
 10
829.6746464076738
 20
-139.6932492807917
 30
0.0
 40
4.0
  1
CIWS Horizontal Wall Panels
100
AcDbAttribute
  2
TITLE
 70
     0
1001
AcDbAttr
1070
     0
1070
     1
  0
ATTRIB
  5
12D3
330
12D0
100
AcDbEntity
 67
     1
  8
Title block
100
AcDbText
 10
802.0400058466661
 20
-154.0490930897657
 30
0.0
 40
2.5
  1
June 2013
100
AcDbAttribute
  2
DATE
 70
     0
1001
AcDbAttr
1070
     0
1070
     1
  0
ATTRIB
  5
12D4
330
12D0
100
AcDbEntity
 67
     1
  8
Title block
100
AcDbText
 10
853.3310431078978
 20
-154.0490930897657
 30
0.0
 40
2.5
  1
N.T.S.
100
AcDbAttribute
  2
SCALE
 70
     0
1001
AcDbAttr
1070
     0
1070
     1
  0
ATTRIB
  5
12D5
330
12D0
100
AcDbEntity
 67
     1
  8
Title block
100
AcDbText
 10
899.9551702904225
 20
-154.2653867001592
 30
0.0
 40
3.5
  1
19.1.1
100
AcDbAttribute
  2
DRGNO
 70
     0
1001
AcDbAttr
1070
     0
1070
     1
  0
ATTRIB
  5
12D6
330
12D0
100
AcDbEntity
 67
     1
  8
Title block
100
AcDbText
 10
829.6746464076738
 20
-146.5485835405574
 30
0.0
 40
4.0
  1
           Isometric View
100
AcDbAttribute
  2
TITLE2
 70
     0
1001
AcDbAttr
1070
     0
1070
     1
  0
SEQEND
  5
12D7
330
12D0
100
AcDbEntity
 67
     1
  8
Border
  0
ENDSEC
  0
SECTION
  2
OBJECTS
  0
DICTIONARY
  5
6AC
330
0
100
AcDbDictionary
281
     1
  3
ACAD_CIP_PREVIOUS_PRODUCT_INFO
350
153E
  3
ACAD_COLOR
350
1061
  3
ACAD_DETAILVIEWSTYLE
350
1533
  3
ACAD_GROUP
350
6AA
  3
ACAD_IMAGE_DICT
350
12C9
  3
ACAD_IMAGE_VARS
350
12D2
  3
ACAD_LAYOUT
350
6CE
  3
ACAD_MATERIAL
350
1037
  3
ACAD_MLEADERSTYLE
350
1086
  3
ACAD_MLINESTYLE
350
6AB
  3
ACAD_PLOTSETTINGS
350
6CF
  3
ACAD_PLOTSTYLENAME
350
6CC
  3
ACAD_SCALELIST
350
1064
  3
ACAD_SECTIONVIEWSTYLE
350
1530
  3
ACAD_TABLESTYLE
350
1062
  3
ACAD_VISUALSTYLE
350
1050
  3
ACDB_RECOMPOSE_DATA
350
1613
  3
AcDbVariableDictionary
350
6D8
  3
AcDsDecomposeData
350
1619
  0
DICTIONARY
  5
124D
330
6A5
100
AcDbDictionary
280
     1
281
     1
  0
DICTIONARY
  5
C14
330
69D
100
AcDbDictionary
280
     1
281
     1
  3
ACAD_LAYERFILTERS
360
C15
  3
ACAD_LAYERSTATES
360
1094
  0
DICTIONARY
  5
123A
330
1A6
100
AcDbDictionary
280
     1
281
     1
  3
ADSK_XREC_LAYER_RECONCILED
360
123B
  0
DICTIONARY
  5
123C
330
4
100
AcDbDictionary
280
     1
281
     1
  3
ADSK_XREC_LAYER_RECONCILED
360
123D
  0
DICTIONARY
  5
1240
330
122
100
AcDbDictionary
280
     1
281
     1
  3
ADSK_XREC_LAYER_RECONCILED
360
1241
  0
DICTIONARY
  5
1242
330
6EB
100
AcDbDictionary
280
     1
281
     1
  3
ADSK_XREC_LAYER_RECONCILED
360
1243
  0
DICTIONARY
  5
1244
330
6EF
100
AcDbDictionary
280
     1
281
     1
  3
ADSK_XREC_LAYER_RECONCILED
360
1245
  0
DICTIONARY
  5
129C
330
129B
100
AcDbDictionary
280
     1
281
     1
  0
DICTIONARY
  5
129E
330
129D
100
AcDbDictionary
280
     1
281
     1
  0
DICTIONARY
  5
1547
330
1546
100
AcDbDictionary
280
     1
281
     1
  0
DICTIONARY
  5
1428
330
2
100
AcDbDictionary
280
     1
281
     1
  3
ACAD_SORTENTS
360
1429
  0
DICTIONARY
  5
12C5
330
12AE
100
AcDbDictionary
280
     1
281
     1
  3
ACAD_SORTENTS
360
1565
  0
DICTIONARY
  5
1562
330
1561
100
AcDbDictionary
280
     1
281
     1
  3
ACAD_MTEXT_2008_RT
360
1612
  0
IMAGEDEF_REACTOR
  5
1564
330
1563
100
AcDbRasterImageDefReactor
 90
        2
330
1563
  0
XRECORD
  5
153E
102
{ACAD_REACTORS
330
6AC
102
}
330
6AC
100
AcDbXrecord
280
     1
300
ACD
300
2013
300
ACD_F_S
  0
DICTIONARY
  5
1061
102
{ACAD_REACTORS
330
6AC
102
}
330
6AC
100
AcDbDictionary
281
     1
  0
DICTIONARY
  5
1533
102
{ACAD_REACTORS
330
6AC
102
}
330
6AC
100
AcDbDictionary
281
     1
  3
Imperial24
350
1534
  0
DICTIONARY
  5
6AA
102
{ACAD_REACTORS
330
6AC
102
}
330
6AC
100
AcDbDictionary
281
     1
  0
DICTIONARY
  5
12C9
102
{ACAD_REACTORS
330
6AC
102
}
330
6AC
100
AcDbDictionary
281
     1
  3
Hebel Supercrete Logo
350
12CA
  3
Hebel Supercrete Logo_1
350
12CB
  3
Supercrete Hi Res_1
350
1566
  0
RASTERVARIABLES
  5
12D2
102
{ACAD_REACTORS
330
6AC
102
}
330
6AC
100
AcDbRasterVariables
 90
        0
 70
     1
 71
     1
 72
     0
  0
DICTIONARY
  5
6CE
102
{ACAD_REACTORS
330
6AC
102
}
330
6AC
100
AcDbDictionary
281
     1
  3
19.1.1
350
6D1
  3
Model
350
6D0
  0
DICTIONARY
  5
1037
102
{ACAD_REACTORS
330
6AC
102
}
330
6AC
100
AcDbDictionary
281
     1
  3
ByBlock
350
1040
  3
ByLayer
350
1038
  3
Global
350
1048
  0
DICTIONARY
  5
1086
102
{ACAD_REACTORS
330
6AC
102
}
330
6AC
100
AcDbDictionary
281
     1
  3
Standard
350
1087
  0
DICTIONARY
  5
6AB
102
{ACAD_REACTORS
330
6AC
102
}
330
6AC
100
AcDbDictionary
281
     1
  3
STANDARD
350
6AD
  0
DICTIONARY
  5
6CF
102
{ACAD_REACTORS
330
6AC
102
}
330
6AC
100
AcDbDictionary
281
     1
  0
ACDBDICTIONARYWDFLT
  5
6CC
102
{ACAD_REACTORS
330
6AC
102
}
330
6AC
100
AcDbDictionary
281
     1
  3
Normal
350
6CD
100
AcDbDictionaryWithDefault
340
6CD
  0
DICTIONARY
  5
1064
102
{ACAD_REACTORS
330
6AC
102
}
330
6AC
100
AcDbDictionary
281
     1
  3
A0
350
1065
  3
A1
350
1066
  3
A2
350
1067
  3
A3
350
1068
  3
A4
350
1069
  3
A5
350
106A
  3
A6
350
106B
  3
A7
350
106C
  3
A8
350
106D
  3
A9
350
106E
  3
B0
350
106F
  3
B1
350
1070
  3
B2
350
1071
  3
B3
350
1072
  3
B4
350
1073
  3
B5
350
1074
  3
B6
350
1075
  3
B7
350
1076
  3
B8
350
1077
  3
B9
350
1078
  3
C0
350
1079
  3
C1
350
107A
  3
C2
350
107B
  3
C3
350
107C
  3
C4
350
107D
  3
C5
350
107E
  3
C6
350
107F
  3
C7
350
1080
  3
C8
350
1081
  3
C9
350
1082
  3
D0
350
1083
  3
D1
350
1084
  3
D2
350
1085
  0
DICTIONARY
  5
1530
102
{ACAD_REACTORS
330
6AC
102
}
330
6AC
100
AcDbDictionary
281
     1
  3
Imperial24
350
1532
  0
DICTIONARY
  5
1062
102
{ACAD_REACTORS
330
6AC
102
}
330
6AC
100
AcDbDictionary
281
     1
  3
Standard
350
1063
  0
DICTIONARY
  5
1050
102
{ACAD_REACTORS
330
6AC
102
}
330
6AC
100
AcDbDictionary
281
     1
  3
2dWireframe
350
1056
  3
3D Hidden
350
1058
  3
3dWireframe
350
1057
  3
Basic
350
1055
  3
Brighten
350
105C
  3
ColorChange
350
1060
  3
Conceptual
350
1059
  3
Dim
350
105B
  3
EdgeColorOff
350
152F
  3
Facepattern
350
105F
  3
Flat
350
1051
  3
FlatWithEdges
350
1052
  3
Gouraud
350
1053
  3
GouraudWithEdges
350
1054
  3
Hidden
350
1527
  3
JitterOff
350
152D
  3
Linepattern
350
105E
  3
OverhangOff
350
152E
  3
Realistic
350
105A
  3
Shaded
350
152C
  3
Shaded with edges
350
152B
  3
Shades of Gray
350
1528
  3
Sketchy
350
1529
  3
Thicken
350
105D
  3
Wireframe
350
1526
  3
X-Ray
350
152A
  0
XRECORD
  5
1613
102
{ACAD_REACTORS
330
6AC
102
}
330
6AC
100
AcDbXrecord
280
     1
 90
        1
330
1063
330
1561
  0
DICTIONARY
  5
6D8
102
{ACAD_REACTORS
330
6AC
102
}
330
6AC
100
AcDbDictionary
281
     1
  3
CANNOSCALE
350
1255
  3
CMLEADERSTYLE
350
1254
  3
CTABLESTYLE
350
1253
  3
CVIEWDETAILSTYLE
350
160F
  3
CVIEWSECTIONSTYLE
350
1610
  3
DIMASSOC
350
6D9
  0
DICTIONARY
  5
1619
102
{ACAD_REACTORS
330
6AC
102
}
330
6AC
100
AcDbDictionary
281
     1
  3
AcDsRecords
350
161B
  3
AcDsSchemas
350
161A
1001
ACAD
1070
     2
  0
DICTIONARY
  5
C15
102
{ACAD_REACTORS
330
C14
102
}
330
C14
100
AcDbDictionary
280
     1
281
     1
  3
DIMENSION
360
C16
  3
HB_X
360
C17
  0
DICTIONARY
  5
1094
102
{ACAD_REACTORS
330
C14
102
}
330
C14
100
AcDbDictionary
281
     1
  0
XRECORD
  5
123B
102
{ACAD_REACTORS
330
123A
102
}
330
123A
100
AcDbXrecord
280
     1
290
     1
  0
XRECORD
  5
123D
102
{ACAD_REACTORS
330
123C
102
}
330
123C
100
AcDbXrecord
280
     1
290
     1
  0
XRECORD
  5
1241
102
{ACAD_REACTORS
330
1240
102
}
330
1240
100
AcDbXrecord
280
     1
290
     1
  0
XRECORD
  5
1243
102
{ACAD_REACTORS
330
1242
102
}
330
1242
100
AcDbXrecord
280
     1
290
     1
  0
XRECORD
  5
1245
102
{ACAD_REACTORS
330
1244
102
}
330
1244
100
AcDbXrecord
280
     1
290
     1
  0
SORTENTSTABLE
  5
1429
102
{ACAD_REACTORS
330
1428
102
}
330
1428
100
AcDbSortentsTable
330
2
331
1A3
  5
1442
331
19F
  5
143D
331
19B
  5
1430
331
143C
  5
144E
331
12E
  5
13B
331
B4
  5
B7
331
1477
  5
D6
331
B0
  5
B3
331
EF
  5
FB
331
12A
  5
138
331
3F
  5
41
331
126
  5
135
331
165
  5
172
331
3B
  5
3E
331
AC
  5
AF
331
EB
  5
F6
331
1430
  5
1447
331
A8
  5
AB
331
161
  5
16E
331
37
  5
39
331
76
  5
78
331
33
  5
36
331
72
  5
74
331
197
  5
BE4
331
193
  5
1A0
331
1021
  5
1446
331
18F
  5
19C
331
18B
  5
198
331
149A
  5
D8
331
E7
  5
EF
331
15D
  5
16A
331
A4
  5
A6
331
E3
  5
EB
331
1467
  5
147F
331
A0
  5
A2
331
DF
  5
E7
331
159
  5
166
331
11A
  5
12F
331
2F
  5
32
331
6E
  5
71
331
1463
  5
1479
331
155
  5
162
331
116
  5
12E
331
2B
  5
2B
331
6A
  5
6C
331
9C
  5
9E
331
DB
  5
E3
331
98
  5
9A
331
151
  5
15E
331
112
  5
129
331
27
  5
27
331
66
  5
68
331
62
  5
64
331
23
  5
23
331
187
  5
194
331
183
  5
191
331
17F
  5
18D
331
17B
  5
189
331
1496
  5
FE
331
1492
  5
143F
331
148E
  5
148F
331
145F
  5
1477
331
D7
  5
DF
331
145B
  5
1474
331
D3
  5
DA
331
14D
  5
15A
331
94
  5
96
331
1457
  5
1460
331
CF
  5
D3
331
90
  5
92
331
10A
  5
117
331
149
  5
156
331
5E
  5
60
331
1F
  5
1F
331
1453
  5
1451
331
106
  5
113
331
145
  5
152
331
5A
  5
5C
331
1B
  5
1B
331
8C
  5
8E
331
88
  5
8A
331
102
  5
10E
331
141
  5
14E
331
17
  5
17
331
56
  5
58
331
13
  5
13
331
52
  5
54
331
177
  5
186
331
173
  5
181
331
16F
  5
17D
331
16B
  5
178
331
147E
  5
1489
331
147A
  5
A7
331
144F
  5
146A
331
C7
  5
CD
331
144B
  5
1465
331
FE
  5
10A
331
13D
  5
14A
331
84
  5
86
331
C3
  5
C8
331
1447
  5
1461
331
80
  5
82
331
FA
  5
106
331
139
  5
146
331
F
  5
F
331
4E
  5
50
331
1443
  5
1459
331
135
  5
142
331
F6
  5
102
331
B
  5
B
331
4A
  5
4C
331
7C
  5
7E
331
BB
  5
C5
331
78
  5
7A
331
131
  5
13E
331
F2
  5
FC
331
7
  5
7
331
46
  5
48
331
3
  5
3
331
42
  5
44
331
1A2
  5
1441
331
19E
  5
143C
331
19A
  5
1425
331
143F
  5
1454
331
B7
  5
BA
331
143B
  5
144C
331
12D
  5
13A
331
B3
  5
B6
331
1476
  5
1487
331
1437
  5
1448
331
AF
  5
B2
331
EE
  5
FA
331
3E
  5
40
331
129
  5
137
331
EA
  5
F4
331
164
  5
171
331
125
  5
134
331
3A
  5
3D
331
AB
  5
AE
331
36
  5
38
331
75
  5
77
331
160
  5
16D
331
71
  5
73
331
32
  5
35
331
196
  5
1A4
331
192
  5
19F
331
18E
  5
19B
331
18A
  5
197
331
1499
  5
F7
331
146E
  5
144A
331
A7
  5
AA
331
146A
  5
1482
331
15C
  5
169
331
E2
  5
EA
331
1466
  5
147E
331
9F
  5
A1
331
DE
  5
E5
331
6D
  5
6F
331
158
  5
165
331
1462
  5
1478
331
115
  5
12D
331
154
  5
161
331
69
  5
6B
331
2A
  5
2A
331
9B
  5
9D
331
DA
  5
E2
331
26
  5
26
331
65
  5
67
331
111
  5
127
331
150
  5
15D
331
22
  5
22
331
61
  5
63
331
186
  5
193
331
BE4
  5
1445
331
182
  5
190
331
17E
  5
18C
331
1495
  5
149A
331
1491
  5
EC
331
148D
  5
1492
331
1489
  5
1496
331
145E
  5
1476
331
97
  5
99
331
D6
  5
DE
331
145A
  5
146B
331
10D
  5
11D
331
14C
  5
159
331
93
  5
95
331
D2
  5
D7
331
1456
  5
145E
331
8F
  5
91
331
CE
  5
D2
331
148
  5
155
331
1E
  5
1E
331
5D
  5
5F
331
109
  5
116
331
1452
  5
144F
331
144
  5
151
331
105
  5
112
331
1A
  5
1A
331
59
  5
5B
331
8B
  5
8D
331
CA
  5
D0
331
140
  5
14D
331
16
  5
16
331
55
  5
57
331
101
  5
10C
331
51
  5
53
331
12
  5
12
331
176
  5
185
331
172
  5
180
331
16E
  5
17C
331
16A
  5
177
331
1485
  5
1491
331
144E
  5
1468
331
87
  5
89
331
144A
  5
1464
331
FD
  5
109
331
13C
  5
149
331
83
  5
85
331
1446
  5
145F
331
7F
  5
81
331
4D
  5
4F
331
E
  5
E
331
F9
  5
105
331
138
  5
145
331
1442
  5
1458
331
F5
  5
101
331
134
  5
141
331
49
  5
4B
331
A
  5
A
331
7B
  5
7D
331
BA
  5
C4
331
6
  5
6
331
45
  5
47
331
130
  5
13D
331
41
  5
43
331
19D
  5
143A
331
199
  5
139E
331
143E
  5
1452
331
B6
  5
B9
331
B2
  5
B5
331
143A
  5
1449
331
1475
  5
1485
331
167
  5
174
331
3D
  5
3F
331
AE
  5
B1
331
ED
  5
F9
331
AA
  5
AD
331
E9
  5
F3
331
163
  5
170
331
39
  5
3B
331
120
  5
133
331
35
  5
37
331
74
  5
76
331
31
  5
33
331
195
  5
1A2
331
191
  5
19E
331
18D
  5
19A
331
189
  5
196
331
1498
  5
D9
331
15F
  5
16C
331
A6
  5
A9
331
E5
  5
EE
331
A2
  5
A5
331
E1
  5
E9
331
15B
  5
168
331
1469
  5
1480
331
1465
  5
147C
331
157
  5
164
331
6C
  5
6E
331
9E
  5
A0
331
D9
  5
E1
331
9A
  5
9C
331
153
  5
160
331
114
  5
12B
331
29
  5
29
331
68
  5
6A
331
1461
  5
144B
331
110
  5
126
331
25
  5
25
331
64
  5
66
331
60
  5
62
331
21
  5
21
331
185
  5
192
331
181
  5
18F
331
17D
  5
18B
331
179
  5
188
331
1494
  5
1498
331
1490
  5
1499
331
148C
  5
1494
331
1488
  5
1495
331
145D
  5
2F
331
D5
  5
DC
331
14F
  5
15C
331
96
  5
98
331
D1
  5
D5
331
92
  5
94
331
10C
  5
11C
331
14B
  5
158
331
1459
  5
145C
331
108
  5
115
331
147
  5
154
331
5C
  5
5E
331
1D
  5
1D
331
8E
  5
90
331
CD
  5
D1
331
8A
  5
8C
331
C9
  5
CF
331
104
  5
111
331
143
  5
150
331
58
  5
5A
331
19
  5
19
331
1451
  5
1457
331
15
  5
15
331
54
  5
56
331
11
  5
11
331
50
  5
52
331
175
  5
183
331
171
  5
17F
331
16D
  5
17B
331
169
  5
176
331
1484
  5
148E
331
1480
  5
148D
331
147C
  5
1488
331
1478
  5
143B
331
144D
  5
1467
331
13F
  5
14C
331
86
  5
88
331
C5
  5
CA
331
82
  5
84
331
FC
  5
108
331
13B
  5
148
331
1449
  5
1463
331
1445
  5
145D
331
137
  5
144
331
F8
  5
104
331
D
  5
D
331
4C
  5
4E
331
7E
  5
80
331
7A
  5
7C
331
B9
  5
C3
331
133
  5
140
331
F4
  5
FF
331
9
  5
9
331
48
  5
4A
331
1441
  5
1456
331
44
  5
46
331
40
  5
42
331
1A4
  5
1443
331
1A0
  5
143E
331
19C
  5
1437
331
198
  5
1021
331
143D
  5
1450
331
12F
  5
13C
331
B5
  5
B8
331
B1
  5
B4
331
12B
  5
139
331
1474
  5
1484
331
166
  5
173
331
127
  5
136
331
AD
  5
B0
331
EC
  5
F8
331
E8
  5
F2
331
A9
  5
AC
331
162
  5
16F
331
38
  5
3A
331
77
  5
79
331
73
  5
75
331
194
  5
1A1
331
190
  5
19D
331
18C
  5
199
331
188
  5
195
331
142D
  5
131
331
E4
  5
ED
331
11F
  5
132
331
15E
  5
16B
331
A5
  5
A8
331
E0
  5
E8
331
A1
  5
A4
331
11B
  5
130
331
15A
  5
167
331
6F
  5
72
331
1464
  5
147A
331
1425
  5
10D
331
156
  5
163
331
6B
  5
6D
331
2C
  5
31
331
9D
  5
9F
331
DC
  5
E4
331
99
  5
9B
331
D8
  5
E0
331
113
  5
12A
331
152
  5
15F
331
28
  5
28
331
67
  5
69
331
1460
  5
2C
331
24
  5
24
331
63
  5
65
331
20
  5
20
331
180
  5
18E
331
17C
  5
18A
331
178
  5
187
331
1497
  5
1444
331
1493
  5
F5
331
148F
  5
1490
331
148B
  5
1497
331
145C
  5
1475
331
10F
  5
125
331
14E
  5
15B
331
95
  5
97
331
D4
  5
DB
331
91
  5
93
331
D0
  5
D4
331
10B
  5
11B
331
14A
  5
157
331
5F
  5
61
331
1458
  5
145A
331
1454
  5
1453
331
146
  5
153
331
107
  5
114
331
1C
  5
1C
331
5B
  5
5D
331
8D
  5
8F
331
C8
  5
CE
331
89
  5
8B
331
142
  5
14F
331
103
  5
110
331
18
  5
18
331
57
  5
59
331
1450
  5
144D
331
14
  5
14
331
53
  5
55
331
10
  5
10
331
174
  5
182
331
170
  5
17E
331
16C
  5
179
331
168
  5
175
331
1487
  5
1493
331
147F
  5
148B
331
147B
  5
BB
331
144C
  5
1466
331
C4
  5
C9
331
13E
  5
14B
331
FF
  5
10B
331
85
  5
87
331
81
  5
83
331
FB
  5
107
331
13A
  5
147
331
4F
  5
51
331
1448
  5
1462
331
1444
  5
145B
331
F7
  5
103
331
136
  5
143
331
4B
  5
4D
331
C
  5
C
331
7D
  5
7F
331
BC
  5
C7
331
79
  5
7B
331
B8
  5
BC
331
F3
  5
FD
331
132
  5
13F
331
47
  5
49
331
8
  5
8
331
43
  5
45
  0
SORTENTSTABLE
  5
1565
102
{ACAD_REACTORS
330
12C5
102
}
330
12C5
100
AcDbSortentsTable
330
12AE
  0
XRECORD
  5
1612
102
{ACAD_REACTORS
330
1562
102
}
330
1562
100
AcDbXrecord
280
     1
 40
27842.0
  1
\pxqc;CIWS CONSTRUCTION
  0
ACDBDETAILVIEWSTYLE
  5
1534
102
{ACAD_REACTORS
330
1533
102
}
330
1533
100
AcDbModelDocViewStyle
 70
     0
  3
Imperial24
290
     0
100
AcDbDetailViewStyle
 70
     0
 71
     0
 90
        3
 71
     1
340
69F
 62
   256
 40
0.24
340
0
 62
   256
 40
0.24
300

 40
0.36
280
     3
 71
     2
340
5
 90
       25
 62
   256
 71
     3
340
69F
 62
   256
 40
0.24
 90
        1
 40
0.75
 90
        1
300
%<\AcVar ViewType \f "%tc1">% %<\AcVar ViewDetailId>%\PSCALE %<\AcVar ViewScale \f "%sn">%
 71
     4
340
5
 90
       25
 62
   256
340
5
 90
       25
 62
   256
280
     0
  0
IMAGEDEF
  5
12CA
102
{ACAD_REACTORS
330
12C9
102
}
330
12C9
100
AcDbRasterImageDef
 90
        0
  1
M:\Autocad\CAD Library\Hebel Supercrete Logo.jpg
 10
5906.0
 20
3360.0
 11
0.0846666666666667
 21
0.0846666666666667
280
     1
281
     5
  0
IMAGEDEF
  5
12CB
102
{ACAD_REACTORS
330
12C9
330
12C3
102
}
330
12C9
100
AcDbRasterImageDef
 90
        0
  1
C:\Documents and Settings\Dennis\My Documents\CAD-DATA\Hebel Supercrete Logo.jpg
 10
5906.0
 20
3360.0
 11
0.0846666666666667
 21
0.0846666666666667
280
     1
281
     5
  0
IMAGEDEF
  5
1566
102
{ACAD_REACTORS
330
1564
330
12C9
102
}
330
12C9
100
AcDbRasterImageDef
 90
        0
  1
M:\LOGISTICS and PRICING\logos & letter head\Graphics\Hebel Letterheads & Logos\Supercrete Hi Res.jpg
 10
1367.0
 20
308.0
 11
0.0846666666666667
 21
0.0846666666666667
280
     1
281
     5
  0
LAYOUT
  5
6D1
102
{ACAD_XDICTIONARY
360
1098
102
}
102
{ACAD_REACTORS
330
6CE
102
}
330
6CE
100
AcDbPlotSettings
  1

  2
Adobe PDF.pc3
  4
A4
  6

 40
3.174999952316284
 41
3.174999952316284
 42
3.175003051757812
 43
3.17498779296875
 44
209.9733276367187
 45
297.0318298339844
 46
0.0
 47
0.0
 48
728.6560416992779
 49
-169.6821581297349
140
918.6560416992779
141
113.317841870265
142
1.0
143
1.0
 70
   672
 72
     1
 73
     0
 74
     5
  7
Hebel monochrome.ctb
 75
     0
147
0.9999999999999998
 76
     0
 77
     2
 78
   300
148
-728.6560416992776
149
169.6821581297348
100
AcDbLayout
  1
19.1.1
 70
     0
 71
     1
 10
725.4810417469614
 20
-172.8571580820511
 11
935.45436938368
 21
124.1746717519333
 12
0.0
 22
0.0
 32
0.0
 14
736.6999137716346
 24
-163.3263132893831
 34
-0.0000000000000058
 15
926.8890902799771
 25
113.3083625100482
 35
0.0000000000000104
146
0.0
 13
0.0
 23
0.0
 33
0.0
 16
1.0
 26
0.0
 36
0.0
 17
0.0
 27
1.0
 37
0.0
 76
     0
330
1A8
331
1A9
1001
ACAD_PSEXT
1000
Adobe PDF.pc3
1000
Adobe PDF Converter
1000
Documents\*.pdf
1000

1070
     0
  0
LAYOUT
  5
6D0
102
{ACAD_REACTORS
330
6CE
102
}
330
6CE
100
AcDbPlotSettings
  1

  2
C:\Program Files\AutoCAD 2002\plotters\DWF ePlot (optimized for plotting).pc3
  4

  6

 40
0.0
 41
0.0
 42
0.0
 43
0.0
 44
0.0
 45
0.0
 46
0.0
 47
0.0
 48
0.0
 49
0.0
140
0.0
141
0.0
142
1.0
143
1.0
 70
  1712
 72
     0
 73
     0
 74
     0
  7

 75
     0
147
1.0
 76
     0
 77
     2
 78
   300
148
0.0
149
0.0
100
AcDbLayout
  1
Model
 70
     1
 71
     0
 10
0.0
 20
0.0
 11
12.0
 21
9.0
 12
0.0
 22
0.0
 32
0.0
 14
0.0
 24
0.0
 34
0.0
 15
0.0
 25
0.0
 35
0.0
146
0.0
 13
0.0
 23
0.0
 33
0.0
 16
1.0
 26
0.0
 36
0.0
 17
0.0
 27
1.0
 37
0.0
 76
     0
330
2
331
1035
  0
MATERIAL
  5
1040
102
{ACAD_XDICTIONARY
360
1041
102
}
102
{ACAD_REACTORS
330
1037
102
}
330
1037
100
AcDbMaterial
  1
ByBlock
 72
     0
 43
0.0208333333333333
 43
0.0
 43
0.0
 43
0.0
 43
0.0
 43
0.0208333333333333
 43
0.0
 43
0.0
 43
0.0
 43
0.0
 43
1.0
 43
0.0
 43
0.0
 43
0.0
 43
0.0
 43
1.0
 77
     0
 47
0.0208333333333333
 47
0.0
 47
0.0
 47
0.0
 47
0.0
 47
0.0208333333333333
 47
0.0
 47
0.0
 47
0.0
 47
0.0
 47
1.0
 47
0.0
 47
0.0
 47
0.0
 47
0.0
 47
1.0
171
     0
 49
0.0208333333333333
 49
0.0
 49
0.0
 49
0.0
 49
0.0
 49
0.0208333333333333
 49
0.0
 49
0.0
 49
0.0
 49
0.0
 49
1.0
 49
0.0
 49
0.0
 49
0.0
 49
0.0
 49
1.0
175
     0
142
0.0208333333333333
142
0.0
142
0.0
142
0.0
142
0.0
142
0.0208333333333333
142
0.0
142
0.0
142
0.0
142
0.0
142
1.0
142
0.0
142
0.0
142
0.0
142
0.0
142
1.0
179
     0
144
0.0208333333333333
144
0.0
144
0.0
144
0.0
144
0.0
144
0.0208333333333333
144
0.0
144
0.0
144
0.0
144
0.0
144
1.0
144
0.0
144
0.0
144
0.0
144
0.0
144
1.0
147
0.0208333333333333
147
0.0
147
0.0
147
0.0
147
0.0
147
0.0208333333333333
147
0.0
147
0.0
147
0.0
147
0.0
147
1.0
147
0.0
147
0.0
147
0.0
147
0.0
147
1.0
  0
MATERIAL
  5
1038
102
{ACAD_XDICTIONARY
360
1039
102
}
102
{ACAD_REACTORS
330
1037
102
}
330
1037
100
AcDbMaterial
  1
ByLayer
 72
     0
 43
0.0208333333333333
 43
0.0
 43
0.0
 43
0.0
 43
0.0
 43
0.0208333333333333
 43
0.0
 43
0.0
 43
0.0
 43
0.0
 43
1.0
 43
0.0
 43
0.0
 43
0.0
 43
0.0
 43
1.0
 77
     0
 47
0.0208333333333333
 47
0.0
 47
0.0
 47
0.0
 47
0.0
 47
0.0208333333333333
 47
0.0
 47
0.0
 47
0.0
 47
0.0
 47
1.0
 47
0.0
 47
0.0
 47
0.0
 47
0.0
 47
1.0
171
     0
 49
0.0208333333333333
 49
0.0
 49
0.0
 49
0.0
 49
0.0
 49
0.0208333333333333
 49
0.0
 49
0.0
 49
0.0
 49
0.0
 49
1.0
 49
0.0
 49
0.0
 49
0.0
 49
0.0
 49
1.0
175
     0
142
0.0208333333333333
142
0.0
142
0.0
142
0.0
142
0.0
142
0.0208333333333333
142
0.0
142
0.0
142
0.0
142
0.0
142
1.0
142
0.0
142
0.0
142
0.0
142
0.0
142
1.0
179
     0
144
0.0208333333333333
144
0.0
144
0.0
144
0.0
144
0.0
144
0.0208333333333333
144
0.0
144
0.0
144
0.0
144
0.0
144
1.0
144
0.0
144
0.0
144
0.0
144
0.0
144
1.0
147
0.0208333333333333
147
0.0
147
0.0
147
0.0
147
0.0
147
0.0208333333333333
147
0.0
147
0.0
147
0.0
147
0.0
147
1.0
147
0.0
147
0.0
147
0.0
147
0.0
147
1.0
  0
MATERIAL
  5
1048
102
{ACAD_XDICTIONARY
360
1049
102
}
102
{ACAD_REACTORS
330
1037
102
}
330
1037
100
AcDbMaterial
  1
Global
 72
     0
 43
0.0208333333333333
 43
0.0
 43
0.0
 43
0.0
 43
0.0
 43
0.0208333333333333
 43
0.0
 43
0.0
 43
0.0
 43
0.0
 43
1.0
 43
0.0
 43
0.0
 43
0.0
 43
0.0
 43
1.0
 77
     0
 47
0.0208333333333333
 47
0.0
 47
0.0
 47
0.0
 47
0.0
 47
0.0208333333333333
 47
0.0
 47
0.0
 47
0.0
 47
0.0
 47
1.0
 47
0.0
 47
0.0
 47
0.0
 47
0.0
 47
1.0
171
     0
 49
0.0208333333333333
 49
0.0
 49
0.0
 49
0.0
 49
0.0
 49
0.0208333333333333
 49
0.0
 49
0.0
 49
0.0
 49
0.0
 49
1.0
 49
0.0
 49
0.0
 49
0.0
 49
0.0
 49
1.0
175
     0
142
0.0208333333333333
142
0.0
142
0.0
142
0.0
142
0.0
142
0.0208333333333333
142
0.0
142
0.0
142
0.0
142
0.0
142
1.0
142
0.0
142
0.0
142
0.0
142
0.0
142
1.0
179
     0
144
0.0208333333333333
144
0.0
144
0.0
144
0.0
144
0.0
144
0.0208333333333333
144
0.0
144
0.0
144
0.0
144
0.0
144
1.0
144
0.0
144
0.0
144
0.0
144
0.0
144
1.0
147
0.0208333333333333
147
0.0
147
0.0
147
0.0
147
0.0
147
0.0208333333333333
147
0.0
147
0.0
147
0.0
147
0.0
147
1.0
147
0.0
147
0.0
147
0.0
147
0.0
147
1.0
  0
MLEADERSTYLE
  5
1087
102
{ACAD_REACTORS
330
1086
102
}
330
1086
100
AcDbMLeaderStyle
170
     2
171
     1
172
     0
 90
        2
 40
0.0
 41
0.0
173
     1
 91
-1056964608
340
6A1
 92
       -2
290
     1
 42
0.09
291
     1
 43
0.36
  3
Standard
 44
0.18
300

342
69F
174
     1
178
     6
175
     1
176
     0
 93
-1056964608
 45
0.18
292
     0
297
     0
 46
0.18
 94
-1056964608
 47
1.0
 49
1.0
140
1.0
293
     1
141
0.0
294
     1
177
     0
142
1.0
295
     0
296
     0
143
0.125
1001
ACAD_MLEADERVER
1070
     2
  0
MLINESTYLE
  5
6AD
102
{ACAD_REACTORS
330
6AB
102
}
330
6AB
100
AcDbMlineStyle
  2
STANDARD
 70
     0
  3

 62
   256
 51
90.0
 52
90.0
 71
     2
 49
0.5
 62
   256
  6
BYLAYER
 49
-0.5
 62
   256
  6
BYLAYER
  0
ACDBPLACEHOLDER
  5
6CD
102
{ACAD_REACTORS
330
6CC
102
}
330
6CC
  0
SCALE
  5
1065
102
{ACAD_REACTORS
330
1064
102
}
330
1064
100
AcDbScale
 70
     0
300
1:1
140
1.0
141
1.0
290
     1
  0
SCALE
  5
1066
102
{ACAD_REACTORS
330
1064
102
}
330
1064
100
AcDbScale
 70
     0
300
1:2
140
1.0
141
2.0
290
     0
  0
SCALE
  5
1067
102
{ACAD_REACTORS
330
1064
102
}
330
1064
100
AcDbScale
 70
     0
300
1:4
140
1.0
141
4.0
290
     0
  0
SCALE
  5
1068
102
{ACAD_REACTORS
330
1064
102
}
330
1064
100
AcDbScale
 70
     0
300
1:5
140
1.0
141
5.0
290
     0
  0
SCALE
  5
1069
102
{ACAD_REACTORS
330
1064
102
}
330
1064
100
AcDbScale
 70
     0
300
1:8
140
1.0
141
8.0
290
     0
  0
SCALE
  5
106A
102
{ACAD_REACTORS
330
1064
102
}
330
1064
100
AcDbScale
 70
     0
300
1:10
140
1.0
141
10.0
290
     0
  0
SCALE
  5
106B
102
{ACAD_REACTORS
330
1064
102
}
330
1064
100
AcDbScale
 70
     0
300
1:16
140
1.0
141
16.0
290
     0
  0
SCALE
  5
106C
102
{ACAD_REACTORS
330
1064
102
}
330
1064
100
AcDbScale
 70
     0
300
1:20
140
1.0
141
20.0
290
     0
  0
SCALE
  5
106D
102
{ACAD_REACTORS
330
1064
102
}
330
1064
100
AcDbScale
 70
     0
300
1:30
140
1.0
141
30.0
290
     0
  0
SCALE
  5
106E
102
{ACAD_REACTORS
330
1064
102
}
330
1064
100
AcDbScale
 70
     0
300
1:40
140
1.0
141
40.0
290
     0
  0
SCALE
  5
106F
102
{ACAD_REACTORS
330
1064
102
}
330
1064
100
AcDbScale
 70
     0
300
1:50
140
1.0
141
50.0
290
     0
  0
SCALE
  5
1070
102
{ACAD_REACTORS
330
1064
102
}
330
1064
100
AcDbScale
 70
     0
300
1:100
140
1.0
141
100.0
290
     0
  0
SCALE
  5
1071
102
{ACAD_REACTORS
330
1064
102
}
330
1064
100
AcDbScale
 70
     0
300
2:1
140
2.0
141
1.0
290
     0
  0
SCALE
  5
1072
102
{ACAD_REACTORS
330
1064
102
}
330
1064
100
AcDbScale
 70
     0
300
4:1
140
4.0
141
1.0
290
     0
  0
SCALE
  5
1073
102
{ACAD_REACTORS
330
1064
102
}
330
1064
100
AcDbScale
 70
     0
300
8:1
140
8.0
141
1.0
290
     0
  0
SCALE
  5
1074
102
{ACAD_REACTORS
330
1064
102
}
330
1064
100
AcDbScale
 70
     0
300
10:1
140
10.0
141
1.0
290
     0
  0
SCALE
  5
1075
102
{ACAD_REACTORS
330
1064
102
}
330
1064
100
AcDbScale
 70
     0
300
100:1
140
100.0
141
1.0
290
     0
  0
SCALE
  5
1076
102
{ACAD_REACTORS
330
1064
102
}
330
1064
100
AcDbScale
 70
     0
300
1/128" = 1'-0"
140
0.0078125
141
12.0
290
     0
  0
SCALE
  5
1077
102
{ACAD_REACTORS
330
1064
102
}
330
1064
100
AcDbScale
 70
     0
300
1/64" = 1'-0"
140
0.015625
141
12.0
290
     0
  0
SCALE
  5
1078
102
{ACAD_REACTORS
330
1064
102
}
330
1064
100
AcDbScale
 70
     0
300
1/32" = 1'-0"
140
0.03125
141
12.0
290
     0
  0
SCALE
  5
1079
102
{ACAD_REACTORS
330
1064
102
}
330
1064
100
AcDbScale
 70
     0
300
1/16" = 1'-0"
140
0.0625
141
12.0
290
     0
  0
SCALE
  5
107A
102
{ACAD_REACTORS
330
1064
102
}
330
1064
100
AcDbScale
 70
     0
300
3/32" = 1'-0"
140
0.09375
141
12.0
290
     0
  0
SCALE
  5
107B
102
{ACAD_REACTORS
330
1064
102
}
330
1064
100
AcDbScale
 70
     0
300
1/8" = 1'-0"
140
0.125
141
12.0
290
     0
  0
SCALE
  5
107C
102
{ACAD_REACTORS
330
1064
102
}
330
1064
100
AcDbScale
 70
     0
300
3/16" = 1'-0"
140
0.1875
141
12.0
290
     0
  0
SCALE
  5
107D
102
{ACAD_REACTORS
330
1064
102
}
330
1064
100
AcDbScale
 70
     0
300
1/4" = 1'-0"
140
0.25
141
12.0
290
     0
  0
SCALE
  5
107E
102
{ACAD_REACTORS
330
1064
102
}
330
1064
100
AcDbScale
 70
     0
300
3/8" = 1'-0"
140
0.375
141
12.0
290
     0
  0
SCALE
  5
107F
102
{ACAD_REACTORS
330
1064
102
}
330
1064
100
AcDbScale
 70
     0
300
1/2" = 1'-0"
140
0.5
141
12.0
290
     0
  0
SCALE
  5
1080
102
{ACAD_REACTORS
330
1064
102
}
330
1064
100
AcDbScale
 70
     0
300
3/4" = 1'-0"
140
0.75
141
12.0
290
     0
  0
SCALE
  5
1081
102
{ACAD_REACTORS
330
1064
102
}
330
1064
100
AcDbScale
 70
     0
300
1" = 1'-0"
140
1.0
141
12.0
290
     0
  0
SCALE
  5
1082
102
{ACAD_REACTORS
330
1064
102
}
330
1064
100
AcDbScale
 70
     0
300
1-1/2" = 1'-0"
140
1.5
141
12.0
290
     0
  0
SCALE
  5
1083
102
{ACAD_REACTORS
330
1064
102
}
330
1064
100
AcDbScale
 70
     0
300
3" = 1'-0"
140
3.0
141
12.0
290
     0
  0
SCALE
  5
1084
102
{ACAD_REACTORS
330
1064
102
}
330
1064
100
AcDbScale
 70
     0
300
6" = 1'-0"
140
6.0
141
12.0
290
     0
  0
SCALE
  5
1085
102
{ACAD_REACTORS
330
1064
102
}
330
1064
100
AcDbScale
 70
     0
300
1'-0" = 1'-0"
140
12.0
141
12.0
290
     0
  0
ACDBSECTIONVIEWSTYLE
  5
1532
102
{ACAD_REACTORS
330
1530
102
}
330
1530
100
AcDbModelDocViewStyle
 70
     0
  3
Imperial24
290
     0
100
AcDbSectionViewStyle
 70
     0
 71
     0
 90
       78
 71
     1
340
69F
 62
   256
 40
0.24
340
0
340
0
 62
   256
 40
0.24
300
I, O, Q, S, X, Z
 40
0.48
 90
        3
 40
0.18
 90
        1
 71
     2
340
1531
 90
       25
 62
   256
340
5
 90
       50
 62
   256
 40
0.24
 40
0.0
 40
0.24
 71
     3
340
69F
 62
   256
 40
0.24
 90
        1
 40
0.75
 90
        1
300
%<\AcVar ViewType \f "%tc1">% %<\AcVar ViewSectionStartId>%-%<\AcVar ViewSectionEndId>%\PSCALE %<\AcVar ViewScale \f "%sn">%
 71
     4
 62
   256
 62
   257
300
ANSI31
 40
1.0
 90
        0
290
     0
290
     0
 90
        6
 40
0.0
 40
1.570796326794896
 40
0.2617993877991494
 40
1.308996938995747
 40
-0.2617993877991494
 40
1.832595714594046
  0
TABLESTYLE
  5
1063
102
{ACAD_XDICTIONARY
360
1246
102
}
102
{ACAD_REACTORS
330
1062
102
}
330
1062
100
AcDbTableStyle
  3
Standard
 70
     0
 71
     0
 40
0.06
 41
0.06
280
     0
281
     0
  7
STANDARD
140
0.18
170
     2
 62
     0
 63
     7
283
     0
274
    -2
284
     1
 64
     0
275
    -2
285
     1
 65
     0
276
    -2
286
     1
 66
     0
277
    -2
287
     1
 67
     0
278
    -2
288
     1
 68
     0
279
    -2
289
     1
 69
     0
  7
STANDARD
140
0.25
170
     5
 62
     0
 63
     7
283
     0
274
    -2
284
     1
 64
     0
275
    -2
285
     1
 65
     0
276
    -2
286
     1
 66
     0
277
    -2
287
     1
 67
     0
278
    -2
288
     1
 68
     0
279
    -2
289
     1
 69
     0
  7
STANDARD
140
0.18
170
     5
 62
     0
 63
     7
283
     0
274
    -2
284
     1
 64
     0
275
    -2
285
     1
 65
     0
276
    -2
286
     1
 66
     0
277
    -2
287
     1
 67
     0
278
    -2
288
     1
 68
     0
279
    -2
289
     1
 69
     0
  0
VISUALSTYLE
  5
1056
102
{ACAD_XDICTIONARY
360
1629
102
}
102
{ACAD_REACTORS
330
1050
102
}
330
1050
100
AcDbVisualStyle
  2
2dWireframe
 70
     4
 71
     0
 72
     2
 73
     0
 90
        0
 40
-0.6
 41
-30.0
 62
     5
 63
     7
421
 16777215
 74
     1
 91
        4
 64
     7
 65
   257
 75
     1
175
     1
 42
1.0
 92
        0
 66
   257
 43
1.0
 76
     1
 77
     6
 78
     2
 67
     7
 79
     5
170
     0
171
     0
290
     0
174
     0
 93
        1
 44
0.0
173
     0
291
     0
 45
0.0
1001
ACAD
1000
AcDbSavedByObjectVersion
1070
     0
  0
VISUALSTYLE
  5
1058
102
{ACAD_XDICTIONARY
360
162D
102
}
102
{ACAD_REACTORS
330
1050
102
}
330
1050
100
AcDbVisualStyle
  2
3D Hidden
 70
     6
 71
     1
 72
     2
 73
     2
 90
        0
 40
-0.6
 41
-30.0
 62
     5
 63
     7
421
 16777215
 74
     2
 91
        2
 64
     7
 65
   257
 75
     2
175
     1
 42
40.0
 92
        0
 66
   257
 43
1.0
 76
     1
 77
     6
 78
     2
 67
     7
 79
     3
170
     0
171
     0
290
     0
174
     0
 93
        1
 44
0.0
173
     0
291
     0
 45
0.0
1001
ACAD
1000
AcDbSavedByObjectVersion
1070
     0
  0
VISUALSTYLE
  5
1057
102
{ACAD_XDICTIONARY
360
162B
102
}
102
{ACAD_REACTORS
330
1050
102
}
330
1050
100
AcDbVisualStyle
  2
3dWireframe
 70
     5
 71
     0
 72
     2
 73
     0
 90
        0
 40
-0.6
 41
-30.0
 62
     5
 63
     7
421
 16777215
 74
     1
 91
        4
 64
     7
 65
   257
 75
     1
175
     1
 42
1.0
 92
        0
 66
   257
 43
1.0
 76
     1
 77
     6
 78
     2
 67
     7
 79
     5
170
     0
171
     0
290
     0
174
     0
 93
        1
 44
0.0
173
     0
291
     0
 45
0.0
1001
ACAD
1000
AcDbSavedByObjectVersion
1070
     0
  0
VISUALSTYLE
  5
1055
102
{ACAD_XDICTIONARY
360
1627
102
}
102
{ACAD_REACTORS
330
1050
102
}
330
1050
100
AcDbVisualStyle
  2
Basic
 70
     7
 71
     1
 72
     0
 73
     1
 90
        0
 40
-0.6
 41
-30.0
 62
     5
 63
     7
421
 16777215
 74
     0
 91
        4
 64
     7
 65
   257
 75
     1
175
     1
 42
1.0
 92
        8
 66
     7
 43
1.0
 76
     1
 77
     6
 78
     2
 67
     7
 79
     5
170
     0
171
     0
290
     0
174
     0
 93
        1
 44
0.0
173
     0
291
     1
 45
0.0
1001
ACAD
1000
AcDbSavedByObjectVersion
1070
     0
  0
VISUALSTYLE
  5
105C
102
{ACAD_XDICTIONARY
360
1635
102
}
102
{ACAD_REACTORS
330
1050
102
}
330
1050
100
AcDbVisualStyle
  2
Brighten
 70
    12
 71
     2
 72
     2
 73
     0
 90
        0
 40
-0.6
 41
-30.0
 62
     5
 63
     7
421
 16777215
 74
     1
 91
        4
 64
     7
 65
   257
 75
     1
175
     1
 42
1.0
 92
        8
 66
     7
 43
1.0
 76
     1
 77
     6
 78
     2
 67
     7
 79
     5
170
     0
171
     0
290
     0
174
     0
 93
        1
 44
50.0
173
     0
291
     1
 45
0.0
1001
ACAD
1000
AcDbSavedByObjectVersion
1070
     0
  0
VISUALSTYLE
  5
1060
102
{ACAD_XDICTIONARY
360
163D
102
}
102
{ACAD_REACTORS
330
1050
102
}
330
1050
100
AcDbVisualStyle
  2
ColorChange
 70
    16
 71
     2
 72
     2
 73
     3
 90
        0
 40
-0.6
 41
-30.0
 62
     5
 63
     8
421
  8421504
 74
     1
 91
        4
 64
     7
 65
   257
 75
     1
175
     1
 42
1.0
 92
        8
 66
     8
424
  8421504
 43
1.0
 76
     1
 77
     6
 78
     2
 67
     7
 79
     5
170
     0
171
     0
290
     0
174
     0
 93
        1
 44
0.0
173
     0
291
     1
 45
0.0
1001
ACAD
1000
AcDbSavedByObjectVersion
1070
     0
  0
VISUALSTYLE
  5
1059
102
{ACAD_XDICTIONARY
360
162F
102
}
102
{ACAD_REACTORS
330
1050
102
}
330
1050
100
AcDbVisualStyle
  2
Conceptual
 70
     9
 71
     3
 72
     2
 73
     0
 90
        0
 40
-0.6
 41
-30.0
 62
     5
 63
     7
421
 16777215
 74
     2
 91
        2
 64
     7
 65
   257
 75
     1
175
     1
 42
40.0
 92
        8
 66
     7
 43
1.0
 76
     1
 77
     6
 78
     2
 67
     7
 79
     3
170
     0
171
     0
290
     0
174
     0
 93
        1
 44
0.0
173
     0
291
     0
 45
0.0
1001
ACAD
1000
AcDbSavedByObjectVersion
1070
     0
  0
VISUALSTYLE
  5
105B
102
{ACAD_XDICTIONARY
360
1633
102
}
102
{ACAD_REACTORS
330
1050
102
}
330
1050
100
AcDbVisualStyle
  2
Dim
 70
    11
 71
     2
 72
     2
 73
     0
 90
        0
 40
-0.6
 41
-30.0
 62
     5
 63
     7
421
 16777215
 74
     1
 91
        4
 64
     7
 65
   257
 75
     1
175
     1
 42
1.0
 92
        8
 66
     7
 43
1.0
 76
     1
 77
     6
 78
     2
 67
     7
 79
     5
170
     0
171
     0
290
     0
174
     0
 93
        1
 44
-50.0
173
     0
291
     1
 45
0.0
1001
ACAD
1000
AcDbSavedByObjectVersion
1070
     0
  0
VISUALSTYLE
  5
152F
102
{ACAD_XDICTIONARY
360
1652
102
}
102
{ACAD_REACTORS
330
1050
102
}
330
1050
100
AcDbVisualStyle
  2
EdgeColorOff
 70
    22
 71
     2
 72
     2
 73
     0
 90
        0
 40
-0.6
 41
-30.0
 62
     5
 63
     7
421
 16777215
 74
     1
 91
        4
 64
     7
 65
   257
 75
     1
175
     1
 42
1.0
 92
        8
 66
     7
 43
1.0
 76
     1
 77
     6
 78
     2
 67
     7
 79
     5
170
     0
171
     0
290
     0
174
     0
 93
        1
 44
0.0
173
     0
291
     1
 45
0.0
1001
ACAD
1000
AcDbSavedByObjectVersion
1070
     0
  0
VISUALSTYLE
  5
105F
102
{ACAD_XDICTIONARY
360
163B
102
}
102
{ACAD_REACTORS
330
1050
102
}
330
1050
100
AcDbVisualStyle
  2
Facepattern
 70
    15
 71
     2
 72
     2
 73
     0
 90
        0
 40
-0.6
 41
-30.0
 62
     5
 63
     7
421
 16777215
 74
     1
 91
        4
 64
     7
 65
   257
 75
     1
175
     1
 42
1.0
 92
        8
 66
     7
 43
1.0
 76
     1
 77
     6
 78
     2
 67
     7
 79
     5
170
     0
171
     0
290
     0
174
     0
 93
        1
 44
0.0
173
     0
291
     1
 45
0.0
1001
ACAD
1000
AcDbSavedByObjectVersion
1070
     0
  0
VISUALSTYLE
  5
1051
102
{ACAD_XDICTIONARY
360
161F
102
}
102
{ACAD_REACTORS
330
1050
102
}
330
1050
100
AcDbVisualStyle
  2
Flat
 70
     0
 71
     2
 72
     1
 73
     1
 90
        2
 40
-0.6
 41
30.0
 62
     5
 63
     7
421
 16777215
 74
     0
 91
        4
 64
     7
 65
   257
 75
     1
175
     1
 42
1.0
 92
        8
 66
     7
 43
1.0
 76
     1
 77
     6
 78
     2
 67
     7
 79
     5
170
     0
171
     0
290
     0
174
     0
 93
       13
 44
0.0
173
     0
291
     1
 45
0.0
1001
ACAD
1000
AcDbSavedByObjectVersion
1070
     0
  0
VISUALSTYLE
  5
1052
102
{ACAD_XDICTIONARY
360
1621
102
}
102
{ACAD_REACTORS
330
1050
102
}
330
1050
100
AcDbVisualStyle
  2
FlatWithEdges
 70
     1
 71
     2
 72
     1
 73
     1
 90
        2
 40
-0.6
 41
30.0
 62
     5
 63
     7
421
 16777215
 74
     1
 91
        4
 64
     7
 65
   257
 75
     1
175
     1
 42
1.0
 92
        0
 66
   257
 43
1.0
 76
     1
 77
     6
 78
     2
 67
     7
 79
     5
170
     0
171
     0
290
     0
174
     0
 93
       13
 44
0.0
173
     0
291
     1
 45
0.0
1001
ACAD
1000
AcDbSavedByObjectVersion
1070
     0
  0
VISUALSTYLE
  5
1053
102
{ACAD_XDICTIONARY
360
1623
102
}
102
{ACAD_REACTORS
330
1050
102
}
330
1050
100
AcDbVisualStyle
  2
Gouraud
 70
     2
 71
     2
 72
     2
 73
     1
 90
        2
 40
-0.6
 41
30.0
 62
     5
 63
     7
421
 16777215
 74
     0
 91
        4
 64
     7
 65
   257
 75
     1
175
     1
 42
1.0
 92
        0
 66
     7
 43
1.0
 76
     1
 77
     6
 78
     2
 67
     7
 79
     5
170
     0
171
     0
290
     0
174
     0
 93
       13
 44
0.0
173
     0
291
     1
 45
0.0
1001
ACAD
1000
AcDbSavedByObjectVersion
1070
     0
  0
VISUALSTYLE
  5
1054
102
{ACAD_XDICTIONARY
360
1625
102
}
102
{ACAD_REACTORS
330
1050
102
}
330
1050
100
AcDbVisualStyle
  2
GouraudWithEdges
 70
     3
 71
     2
 72
     2
 73
     1
 90
        2
 40
-0.6
 41
30.0
 62
     5
 63
     7
421
 16777215
 74
     1
 91
        4
 64
     7
 65
   257
 75
     1
175
     1
 42
1.0
 92
        0
 66
   257
 43
1.0
 76
     1
 77
     6
 78
     2
 67
     7
 79
     5
170
     0
171
     0
290
     0
174
     0
 93
       13
 44
0.0
173
     0
291
     1
 45
0.0
1001
ACAD
1000
AcDbSavedByObjectVersion
1070
     0
  0
VISUALSTYLE
  5
1527
102
{ACAD_XDICTIONARY
360
1642
102
}
102
{ACAD_REACTORS
330
1050
102
}
330
1050
100
AcDbVisualStyle
  2
Hidden
 70
     6
 71
     1
 72
     2
 73
     2
 90
        0
 40
-0.6
 41
-30.0
 62
     5
 63
     7
421
 16777215
 74
     2
 91
        2
 64
     7
 65
   257
 75
     2
175
     1
 42
40.0
 92
        0
 66
   257
 43
1.0
 76
     1
 77
     6
 78
     2
 67
     7
 79
     3
170
     0
171
     0
290
     0
174
     0
 93
        1
 44
0.0
173
     0
291
     0
 45
0.0
1001
ACAD
1000
AcDbSavedByObjectVersion
1070
     0
  0
VISUALSTYLE
  5
152D
102
{ACAD_XDICTIONARY
360
164E
102
}
102
{ACAD_REACTORS
330
1050
102
}
330
1050
100
AcDbVisualStyle
  2
JitterOff
 70
    20
 71
     2
 72
     2
 73
     0
 90
        0
 40
-0.6
 41
-30.0
 62
     5
 63
     7
421
 16777215
 74
     1
 91
        4
 64
     7
 65
   257
 75
     1
175
     1
 42
1.0
 92
       10
 66
     7
 43
1.0
 76
     1
 77
     6
 78
     2
 67
     7
 79
     5
170
     0
171
     0
290
     0
174
     0
 93
        1
 44
0.0
173
     0
291
     1
 45
0.0
1001
ACAD
1000
AcDbSavedByObjectVersion
1070
     0
  0
VISUALSTYLE
  5
105E
102
{ACAD_XDICTIONARY
360
1639
102
}
102
{ACAD_REACTORS
330
1050
102
}
330
1050
100
AcDbVisualStyle
  2
Linepattern
 70
    14
 71
     2
 72
     2
 73
     0
 90
        0
 40
-0.6
 41
-30.0
 62
     5
 63
     7
421
 16777215
 74
     1
 91
        4
 64
     7
 65
   257
 75
     7
175
     7
 42
1.0
 92
        8
 66
     7
 43
1.0
 76
     1
 77
     6
 78
     2
 67
     7
 79
     5
170
     0
171
     0
290
     0
174
     0
 93
        1
 44
0.0
173
     0
291
     1
 45
0.0
1001
ACAD
1000
AcDbSavedByObjectVersion
1070
     0
  0
VISUALSTYLE
  5
152E
102
{ACAD_XDICTIONARY
360
1650
102
}
102
{ACAD_REACTORS
330
1050
102
}
330
1050
100
AcDbVisualStyle
  2
OverhangOff
 70
    21
 71
     2
 72
     2
 73
     0
 90
        0
 40
-0.6
 41
-30.0
 62
     5
 63
     7
421
 16777215
 74
     1
 91
        4
 64
     7
 65
   257
 75
     1
175
     1
 42
1.0
 92
        9
 66
     7
 43
1.0
 76
     1
 77
     6
 78
     2
 67
     7
 79
     5
170
     0
171
     0
290
     0
174
     0
 93
        1
 44
0.0
173
     0
291
     1
 45
0.0
1001
ACAD
1000
AcDbSavedByObjectVersion
1070
     0
  0
VISUALSTYLE
  5
105A
102
{ACAD_XDICTIONARY
360
1631
102
}
102
{ACAD_REACTORS
330
1050
102
}
330
1050
100
AcDbVisualStyle
  2
Realistic
 70
     8
 71
     2
 72
     2
 73
     0
 90
        0
 40
-0.6
 41
-30.0
 62
     5
 63
     7
421
 16777215
 74
     1
 91
        0
 64
     7
 65
   257
 75
     1
175
     1
 42
1.0
 92
        8
 66
     8
424
  7895160
 43
1.0
 76
     1
 77
     6
 78
     2
 67
     7
 79
     5
170
     0
171
     0
290
     0
174
     0
 93
       13
 44
0.0
173
     0
291
     0
 45
0.0
1001
ACAD
1000
AcDbSavedByObjectVersion
1070
     0
  0
VISUALSTYLE
  5
152C
102
{ACAD_XDICTIONARY
360
164C
102
}
102
{ACAD_REACTORS
330
1050
102
}
330
1050
100
AcDbVisualStyle
  2
Shaded
 70
    27
 71
     2
 72
     2
 73
     1
 90
        2
 40
-0.6
 41
30.0
 62
     5
 63
     7
421
 16777215
 74
     0
 91
        4
 64
     7
 65
   257
 75
     1
175
     1
 42
1.0
 92
        8
 66
   257
 43
1.0
 76
     1
 77
     6
 78
     2
 67
     8
425
  7895160
 79
     3
170
     0
171
     0
290
     0
174
     0
 93
        5
 44
0.0
173
     0
291
     0
 45
0.0
1001
ACAD
1000
AcDbSavedByObjectVersion
1070
     0
  0
VISUALSTYLE
  5
152B
102
{ACAD_XDICTIONARY
360
164A
102
}
102
{ACAD_REACTORS
330
1050
102
}
330
1050
100
AcDbVisualStyle
  2
Shaded with edges
 70
    26
 71
     2
 72
     2
 73
     1
 90
        2
 40
-0.6
 41
30.0
 62
     5
 63
     7
421
 16777215
 74
     1
 91
       10
 64
     7
 65
   257
 75
     2
175
     1
 42
1.0
 92
        8
 66
   257
 43
1.0
 76
     1
 77
     6
 78
     2
 67
     7
 79
     3
170
     0
171
     0
290
     0
174
     0
 93
        5
 44
0.0
173
     0
291
     0
 45
0.0
1001
ACAD
1000
AcDbSavedByObjectVersion
1070
     0
  0
VISUALSTYLE
  5
1528
102
{ACAD_XDICTIONARY
360
1644
102
}
102
{ACAD_REACTORS
330
1050
102
}
330
1050
100
AcDbVisualStyle
  2
Shades of Gray
 70
    23
 71
     2
 72
     2
 73
     3
 90
        0
 40
-0.6
 41
-30.0
 62
     5
 63
     7
421
 16777215
 74
     2
 91
        2
 64
     7
 65
     7
 75
     1
175
     1
 42
40.0
 92
        8
 66
     7
 43
1.0
 76
     1
 77
     6
 78
     2
 67
     7
 79
     3
170
     0
171
     0
290
     0
174
     0
 93
        1
 44
0.0
173
     0
291
     0
 45
0.0
1001
ACAD
1000
AcDbSavedByObjectVersion
1070
     0
  0
VISUALSTYLE
  5
1529
102
{ACAD_XDICTIONARY
360
1646
102
}
102
{ACAD_REACTORS
330
1050
102
}
330
1050
100
AcDbVisualStyle
  2
Sketchy
 70
    24
 71
     1
 72
     2
 73
     2
 90
        0
 40
-0.6
 41
-30.0
 62
     5
 63
     7
421
 16777215
 74
     2
 91
        2
 64
     7
 65
     7
 75
     1
175
     1
 42
40.0
 92
       11
 66
     7
 43
1.0
 76
     1
 77
     6
 78
     2
 67
     7
 79
     6
170
     0
171
     0
290
     0
174
     0
 93
        1
 44
0.0
173
     0
291
     0
 45
0.0
1001
ACAD
1000
AcDbSavedByObjectVersion
1070
     0
  0
VISUALSTYLE
  5
105D
102
{ACAD_XDICTIONARY
360
1637
102
}
102
{ACAD_REACTORS
330
1050
102
}
330
1050
100
AcDbVisualStyle
  2
Thicken
 70
    13
 71
     2
 72
     2
 73
     0
 90
        0
 40
-0.6
 41
-30.0
 62
     5
 63
     7
421
 16777215
 74
     1
 91
        4
 64
     7
 65
   257
 75
     1
175
     1
 42
1.0
 92
       12
 66
     7
 43
1.0
 76
     1
 77
     6
 78
     2
 67
     7
 79
     5
170
     0
171
     0
290
     0
174
     0
 93
        1
 44
0.0
173
     0
291
     1
 45
0.0
1001
ACAD
1000
AcDbSavedByObjectVersion
1070
     0
  0
VISUALSTYLE
  5
1526
102
{ACAD_XDICTIONARY
360
1640
102
}
102
{ACAD_REACTORS
330
1050
102
}
330
1050
100
AcDbVisualStyle
  2
Wireframe
 70
     5
 71
     0
 72
     2
 73
     0
 90
        0
 40
-0.6
 41
-30.0
 62
     5
 63
     7
421
 16777215
 74
     1
 91
        4
 64
     7
 65
   257
 75
     1
175
     1
 42
1.0
 92
        0
 66
   257
 43
1.0
 76
     1
 77
     6
 78
     2
 67
     7
 79
     3
170
     0
171
     0
290
     0
174
     0
 93
        1
 44
0.0
173
     0
291
     0
 45
0.0
1001
ACAD
1000
AcDbSavedByObjectVersion
1070
     0
  0
VISUALSTYLE
  5
152A
102
{ACAD_XDICTIONARY
360
1648
102
}
102
{ACAD_REACTORS
330
1050
102
}
330
1050
100
AcDbVisualStyle
  2
X-Ray
 70
    25
 71
     2
 72
     2
 73
     1
 90
        1
 40
0.5
 41
-30.0
 62
     5
 63
     7
421
 16777215
 74
     1
 91
        0
 64
     7
 65
   257
 75
     1
175
     1
 42
1.0
 92
        8
 66
     7
 43
1.0
 76
     1
 77
     6
 78
     2
 67
     7
 79
     3
170
     0
171
     0
290
     0
174
     0
 93
       13
 44
0.0
173
     0
291
     0
 45
0.0
1001
ACAD
1000
AcDbSavedByObjectVersion
1070
     0
  0
DICTIONARYVAR
  5
1255
102
{ACAD_REACTORS
330
6D8
102
}
330
6D8
100
DictionaryVariables
280
     0
  1
1:1
  0
DICTIONARYVAR
  5
1254
102
{ACAD_REACTORS
330
6D8
102
}
330
6D8
100
DictionaryVariables
280
     0
  1
STANDARD
  0
DICTIONARYVAR
  5
1253
102
{ACAD_REACTORS
330
6D8
102
}
330
6D8
100
DictionaryVariables
280
     0
  1
STANDARD
  0
DICTIONARYVAR
  5
160F
102
{ACAD_REACTORS
330
6D8
102
}
330
6D8
100
DictionaryVariables
280
     0
  1
Imperial24
  0
DICTIONARYVAR
  5
1610
102
{ACAD_REACTORS
330
6D8
102
}
330
6D8
100
DictionaryVariables
280
     0
  1
Imperial24
  0
DICTIONARYVAR
  5
6D9
102
{ACAD_REACTORS
330
6D8
102
}
330
6D8
100
DictionaryVariables
280
     0
  1
1
  0
DICTIONARY
  5
161B
102
{ACAD_REACTORS
330
1619
102
}
330
1619
100
AcDbDictionary
281
     1
  0
DICTIONARY
  5
161A
102
{ACAD_REACTORS
330
1619
102
}
330
1619
100
AcDbDictionary
281
     1
  3
8796081500992
350
1614
  3
8796081501008
350
1615
  3
8796081501024
350
1616
  3
8796081501040
350
1617
  3
8796081501056
350
1618
  0
XRECORD
  5
C16
102
{ACAD_REACTORS
330
C15
102
}
330
C15
100
AcDbXrecord
280
     1
  1
DIMENSION
  1
*DIM*
  1
*
  1
*
 70
     0
  1
*
  1
*
  0
XRECORD
  5
C17
102
{ACAD_REACTORS
330
C15
102
}
330
C15
100
AcDbXrecord
280
     1
  1
HB_X
  1
HB_X*
  1
*
  1
*
 70
     0
  1
*
  1
*
  0
DICTIONARY
  5
1098
330
6D1
100
AcDbDictionary
280
     1
281
     1
  3
ADSK_XREC_LAYOUTTHUMBNAIL
360
1099
  0
DICTIONARY
  5
1041
330
1040
100
AcDbDictionary
280
     1
281
     1
  3
ACAD_XREC_ROUNDTRIP
360
161D
  3
BUMPTILE
360
1043
  3
DIFFUSETILE
360
1042
  3
OPACITYTILE
360
1046
  3
REFLECTIONTILE
360
1045
  3
REFRACTIONTILE
360
1047
  3
SPECULARTILE
360
1044
  0
DICTIONARY
  5
1039
330
1038
100
AcDbDictionary
280
     1
281
     1
  3
ACAD_XREC_ROUNDTRIP
360
161C
  3
BUMPTILE
360
103B
  3
DIFFUSETILE
360
103A
  3
OPACITYTILE
360
103E
  3
REFLECTIONTILE
360
103D
  3
REFRACTIONTILE
360
103F
  3
SPECULARTILE
360
103C
  0
DICTIONARY
  5
1049
330
1048
100
AcDbDictionary
280
     1
281
     1
  3
ACAD_XREC_ROUNDTRIP
360
161E
  3
BUMPTILE
360
104B
  3
DIFFUSETILE
360
104A
  3
OPACITYTILE
360
104E
  3
REFLECTIONTILE
360
104D
  3
REFRACTIONTILE
360
104F
  3
SPECULARTILE
360
104C
  0
DICTIONARY
  5
1246
330
1063
100
AcDbDictionary
280
     1
281
     1
  3
ACAD_ROUNDTRIP_2008_TABLESTYLE_CELLSTYLEMAP
360
1611
  3
ACAD_XREC_ROUNDTRIP
360
163F
  0
DICTIONARY
  5
1629
330
1056
100
AcDbDictionary
280
     1
281
     1
  3
ACAD_XREC_ROUNDTRIP
360
162A
  0
DICTIONARY
  5
162D
330
1058
100
AcDbDictionary
280
     1
281
     1
  3
ACAD_XREC_ROUNDTRIP
360
162E
  0
DICTIONARY
  5
162B
330
1057
100
AcDbDictionary
280
     1
281
     1
  3
ACAD_XREC_ROUNDTRIP
360
162C
  0
DICTIONARY
  5
1627
330
1055
100
AcDbDictionary
280
     1
281
     1
  3
ACAD_XREC_ROUNDTRIP
360
1628
  0
DICTIONARY
  5
1635
330
105C
100
AcDbDictionary
280
     1
281
     1
  3
ACAD_XREC_ROUNDTRIP
360
1636
  0
DICTIONARY
  5
163D
330
1060
100
AcDbDictionary
280
     1
281
     1
  3
ACAD_XREC_ROUNDTRIP
360
163E
  0
DICTIONARY
  5
162F
330
1059
100
AcDbDictionary
280
     1
281
     1
  3
ACAD_XREC_ROUNDTRIP
360
1630
  0
DICTIONARY
  5
1633
330
105B
100
AcDbDictionary
280
     1
281
     1
  3
ACAD_XREC_ROUNDTRIP
360
1634
  0
DICTIONARY
  5
1652
330
152F
100
AcDbDictionary
280
     1
281
     1
  3
ACAD_XREC_ROUNDTRIP
360
1653
  0
DICTIONARY
  5
163B
330
105F
100
AcDbDictionary
280
     1
281
     1
  3
ACAD_XREC_ROUNDTRIP
360
163C
  0
DICTIONARY
  5
161F
330
1051
100
AcDbDictionary
280
     1
281
     1
  3
ACAD_XREC_ROUNDTRIP
360
1620
  0
DICTIONARY
  5
1621
330
1052
100
AcDbDictionary
280
     1
281
     1
  3
ACAD_XREC_ROUNDTRIP
360
1622
  0
DICTIONARY
  5
1623
330
1053
100
AcDbDictionary
280
     1
281
     1
  3
ACAD_XREC_ROUNDTRIP
360
1624
  0
DICTIONARY
  5
1625
330
1054
100
AcDbDictionary
280
     1
281
     1
  3
ACAD_XREC_ROUNDTRIP
360
1626
  0
DICTIONARY
  5
1642
330
1527
100
AcDbDictionary
280
     1
281
     1
  3
ACAD_XREC_ROUNDTRIP
360
1643
  0
DICTIONARY
  5
164E
330
152D
100
AcDbDictionary
280
     1
281
     1
  3
ACAD_XREC_ROUNDTRIP
360
164F
  0
DICTIONARY
  5
1639
330
105E
100
AcDbDictionary
280
     1
281
     1
  3
ACAD_XREC_ROUNDTRIP
360
163A
  0
DICTIONARY
  5
1650
330
152E
100
AcDbDictionary
280
     1
281
     1
  3
ACAD_XREC_ROUNDTRIP
360
1651
  0
DICTIONARY
  5
1631
330
105A
100
AcDbDictionary
280
     1
281
     1
  3
ACAD_XREC_ROUNDTRIP
360
1632
  0
DICTIONARY
  5
164C
330
152C
100
AcDbDictionary
280
     1
281
     1
  3
ACAD_XREC_ROUNDTRIP
360
164D
  0
DICTIONARY
  5
164A
330
152B
100
AcDbDictionary
280
     1
281
     1
  3
ACAD_XREC_ROUNDTRIP
360
164B
  0
DICTIONARY
  5
1644
330
1528
100
AcDbDictionary
280
     1
281
     1
  3
ACAD_XREC_ROUNDTRIP
360
1645
  0
DICTIONARY
  5
1646
330
1529
100
AcDbDictionary
280
     1
281
     1
  3
ACAD_XREC_ROUNDTRIP
360
1647
  0
DICTIONARY
  5
1637
330
105D
100
AcDbDictionary
280
     1
281
     1
  3
ACAD_XREC_ROUNDTRIP
360
1638
  0
DICTIONARY
  5
1640
330
1526
100
AcDbDictionary
280
     1
281
     1
  3
ACAD_XREC_ROUNDTRIP
360
1641
  0
DICTIONARY
  5
1648
330
152A
100
AcDbDictionary
280
     1
281
     1
  3
ACAD_XREC_ROUNDTRIP
360
1649
  0
XRECORD
  5
1614
102
{ACAD_REACTORS
330
161A
102
}
330
161A
100
AcDbXrecord
280
     1
  1
AcDb_Thumbnail_Schema
102
{ATTRRECORD
341
1615
  2
AcDbDs::TreatedAsObjectData
280
     1
291
     1
102
ATTRRECORD}
102
{ATTRRECORD
341
1616
  2
AcDbDs::Legacy
280
     1
291
     1
102
ATTRRECORD}
  2
AcDbDs::ID
280
    10
 91
        8
102
{ATTRRECORD
341
1617
  2
AcDs:Indexable
280
     1
291
     1
102
ATTRRECORD}
102
{ATTRRECORD
341
1618
  2
AcDbDs::HandleAttribute
280
     7
282
     1
102
ATTRRECORD}
  2
Thumbnail_Data
280
    15
 91
        0
  0
XRECORD
  5
1615
102
{ACAD_REACTORS
330
161A
102
}
330
161A
100
AcDbXrecord
280
     1
  1
AcDbDs::TreatedAsObjectDataSchema
  2
AcDbDs::TreatedAsObjectData
280
     1
 91
        0
  0
XRECORD
  5
1616
102
{ACAD_REACTORS
330
161A
102
}
330
161A
100
AcDbXrecord
280
     1
  1
AcDbDs::LegacySchema
  2
AcDbDs::Legacy
280
     1
 91
        0
  0
XRECORD
  5
1617
102
{ACAD_REACTORS
330
161A
102
}
330
161A
100
AcDbXrecord
280
     1
  1
AcDbDs::IndexedPropertySchema
  2
AcDs:Indexable
280
     1
 91
        0
  0
XRECORD
  5
1618
102
{ACAD_REACTORS
330
161A
102
}
330
161A
100
AcDbXrecord
280
     1
  1
AcDbDs::HandleAttributeSchema
  2
AcDbDs::HandleAttribute
280
     7
 91
        1
284
     1
  0
XRECORD
  5
1099
102
{ACAD_REACTORS
330
1098
102
}
330
1098
100
AcDbXrecord
280
     1
310
28000000620000008C0000000100080000000000B0360000000000000000000000010000000000004C00390000000000FFFFFF000000000000000000000000000000000000000000000000000000000000000000330000006600000099000000CC000000FF00000000330000333300006633000099330000CC330000FF3300
310
0000660000336600006666000099660000CC660000FF66000000990000339900006699000099990000CC990000FF99000000CC000033CC000066CC000099CC0000CCCC0000FFCC000000FF000033FF000066FF000099FF0000CCFF0000FFFF000000003300330033006600330099003300CC003300FF003300003333003333
310
33006633330099333300CC333300FF33330000663300336633006666330099663300CC663300FF66330000993300339933006699330099993300CC993300FF99330000CC330033CC330066CC330099CC3300CCCC3300FFCC330000FF330033FF330066FF330099FF3300CCFF3300FFFF330000006600330066006600660099
310
006600CC006600FF00660000336600333366006633660099336600CC336600FF33660000666600336666006666660099666600CC666600FF66660000996600339966006699660099996600CC996600FF99660000CC660033CC660066CC660099CC6600CCCC6600FFCC660000FF660033FF660066FF660099FF6600CCFF6600
310
FFFF660000009900330099006600990099009900CC009900FF00990000339900333399006633990099339900CC339900FF33990000669900336699006666990099669900CC669900FF66990000999900339999006699990099999900CC999900FF99990000CC990033CC990066CC990099CC9900CCCC9900FFCC990000FF99
310
0033FF990066FF990099FF9900CCFF9900FFFF99000000CC003300CC006600CC009900CC00CC00CC00FF00CC000033CC003333CC006633CC009933CC00CC33CC00FF33CC000066CC003366CC006666CC009966CC00CC66CC00FF66CC000099CC003399CC006699CC009999CC00CC99CC00FF99CC0000CCCC0033CCCC0066CC
310
CC0099CCCC00CCCCCC00FFCCCC0000FFCC0033FFCC0066FFCC0099FFCC00CCFFCC00FFFFCC000000FF003300FF006600FF009900FF00CC00FF00FF00FF000033FF003333FF006633FF009933FF00CC33FF00FF33FF000066FF003366FF006666FF009966FF00CC66FF00FF66FF000099FF003399FF006699FF009999FF00CC
310
99FF00FF99FF0000CCFF0033CCFF0066CCFF0099CCFF00CCCCFF00FFCCFF0000FFFF0033FFFF0066FFFF0099FFFF00CCFFFF00FFFFFF00000000000D0D0D001A1A1A00282828003535350043434300505050005D5D5D006B6B6B00787878008686860093939300A1A1A100AEAEAE00BBBBBB00C9C9C900D6D6D600E4E4E400
310
F1F1F100FFFFFF0000000000000000000000000000000000000000000000000000000000000000000000000000000000EFF5F5F5F5F5F5F5F5F5F5F5F5F5F5F5F5F5F5F5F5F5F5F5F5F5F5F5F5F5F5F5F5F5F5F5F5F5F5F5F5F5F5F5F5F5F5F5F5F5F5F5F5F5F5F5F5F5F5F5F5F5F5F5F5F5F5F5F5F5F5F5F5F5F5F5F5F5F5
310
F5F5F5F5F5F5F5F5F5F5F5F5F5F5F5F5F5F5F5350DEFF52F2F2F2F2F2F2F2F2F2F2F2F2F2F2F2F2F2F2F2F2F2F2F2F2F2F2F2F2F2F2F2F2F2F2F2F2F2F2F2F2F2F2F2F2F2F2F2F2F2F2F2F2F2F2F2F2F2F2F2F2F2F2F2F2F2F2F2F2F2F2F2F2F2F2F2F2F2F2F2F2F2F2F2F2F2F2F2F2F2F2F2F2F2F2F2F6861EFF5F5F5F5F5
310
F5F5F5F52F2F2F2F2F2F2F2F2FF5F5F5F5F5F5F5F5F5F5F5F5F5F5F52F2F2F2F2F2F2F2FF5F5F5F5F5F5F5F5F5F5F5F5F5F5F5F52F2F2F2F2F2F2F2FF5F5F5F5F5F5F5F5F5F5F5F5F5F5F52F2F2F2F2F2F2F2F2FF5F5F5F5F5F5F5F56900EFF5F52F2F2F2F2F2F2F2F2F2F2F2F2F2F2F2F2F2F2F2F2F2F2F2F2F2F2F2F2F2F
310
2F2F2F2F2F2F2F2F2F2F2F2F2F2F2F2F2F2F2F2F2F2F2F2F2F2F2F2F2F2F2F2F2F2F2F2F2F2F2F2F2F2F2F2F2F2F2F2F2F2F2F2F2F2F2F2F2F2F2F2F2F2F2F2FF50400EFF5F52F2F2F2F2F2F2F2F2F2F2F2F2F2F2F2F2F2F2F2F2F2F2F2F2F2F2F2F2F2F2F2F2F2F2F2F2F2F2F2F2F2F2F2F2F2F2F2F2F2F2F2F2F2F2F2F2F
310
2F2F2F2F2F2F2F2F2F2F2F2F2F2F2F2F2F2F2F2F2F2F2F2F2F2F2F2F2F2F2F2F2F2F2F2F2FF56E00EFF5F52F2F2FF5F5F5F5F5F5F5F5F5F5F5F5F5F5F5F5F5F5F5F5F5F5F5F5F5F5F5F5F5F5F5F5F5F5F5F5F5F5F5F5F5F5F5F5F5F5F5F5F5F5F5F5F5F5F5F5F5F5F5F5F5F5F5F5F5F5F5F5F5F5F5F5F5F5F5F5F5F5F5F5F5
310
F5F5F5F5F5F5F5F52F2FF57800EFF5F52F2F2FF5A9CCA8C6A8CCA2CDA8C6A8C6AFCCD3A8CDD2C6A9CCA8CCF5F5F5F5F5F5F5F5F5F5F5F5F5F5F5F5F5F5F5F5F5F5F5F5F5F5F5F5F5F5F5F5F5F5F5F5F5F5F5F5F5F5F5F5F5F5F5F5F5F5F5F5F5F5F5F5F5F5F5F5F5F5F5F5F52F2FF50300EFF5F52F2F2FF5A2CCA8CDA8A9A8
310
C6A8A2A8A2CCA2A9A8A2A8A2A8A2CDA8F52F2F2F2F2F2F2F2F2F2F2F2F2F2F2F2F2F2F2F2F2F2F2F2F2F2F2F2F2F2F2F2F2F2F2F2F2F2F2F2F2F2F2F2F2F2F2F2F2F2F2F2F2F2F2F2F2F2F2F2F2F2F2FF52F2FF53000EFF5F52F2F2FF5A9CCAFDADADADADADADADADADADADADADADADADAD3DADAF5F5F5F5F5F5F5F5F5F5F5
310
F5F5F5F5F5F5F5F5F5F5F5F5F5F5F5F5F5F5F5F5F5F5F5F5F5F5F5F5F5F5F5F5F5F5F5F5F5F5F5F5F5F5F5F5F5F5F5F5F5F5F5F5F5F52F2FF57300EFF5F52F2F2FF5F1F1DAF2F3F3F2F3F3F3F3F3F3F3F3F3F3F3F3F3F2F3F3F5F5F5F5F52FF5F5F5F5F5F5F5F5F5F52F2F2F2F2F2FF52FF5F5F5F5F52FF5F5F5F5F52F2F2F
310
2F2F2F2F2FF5F5F5F5F5F5F52F2FF5F5F5F5F5F52F2F2F2F2F2FF52F2FF56800EFF5F52F2F2FF5A2A1A2A2A1A2A1A2A1A2A1A2A1A2A2A1A2A1A2A1A2A1A2F5F5F5F5F52FF5F5F5F5F5F5F5F5F5F52F2F2F2F2F2FF52FF5F5F5F5F52FF5F5F5F5F52F2F2F2F2F2F2F2FF5F5F5F5F5F5F52F2FF5F5F5F5F5F52F2F2F2F2F2FF5
310
2F2FF56500EFF52F2F2F2FF5A1C5A29BC5A2A1C5A2A19BC5A1A2A19B9BC5A1A29BC5A2F52F2F2F2F2F2F2F2F2F2F2F2F2F2F2F2F2F2F2F2F2FF52F2F2F2F2F2F2F2F2F2F2F2F2F2F2F2F2F2F2F2FF52F2F2F2F2F2F2F2F2F2F2F2F2F2F2F2F2F2F2F2FF52F2F2F0600EFF52F2F2F2FF5A9DADAA8DADAB0D3DADAAFD4F3D3F2
310
D3A2D4DAD9A9DADAF5F5F5F5F5F5F5F5F5F5F5F5F5F5F5F5F5F5F5F5F5F5F5F5F5F5F5F5F5F5F5F5F5F5F5F5F5F5F5F5F5F5F5F5F5F5F5F5F5F5F5F5F5F5F5F5F5F5F5F5F5F5F5F5F52F2F2F8100EFF52F2F2F2FF5C6DAD4A1D3DBAFF4D3AFD3AFF4CCD4F3D3F3AFD4AFD3F3F52F2F2F2F2F2F2F2F2F2F2F2F2F2F2F2F2F2F
310
F5F5F5F5F5F5F5F5F5F5F5F5F5F5F5F5F5F5F5F5F5F5F5F5F52F2F2F2F2F2F2F2F2F2F2F2F2F2F2F2F2F2F2F2FF52F2F2F0800EFF52F2F2F2FF5A1DAF3D3DAF4D3F4F1DAD4D3DAA8D3F3D3F4D3F4AFD3DBF52F2F2F2F2F2F2F2F2F2F2F2F2F2F2F2F2F2FF5F5F5F5F5F5F5F5F5F5F5F5F5F5F5F5F5F5F5F5F5F5F5F5F52F2F
310
2F2F2F2F2F2F2F2F2F2F2F2F2F2F2F2F2F2FF52F2F2F5F00EFF52F2F2F2FF5C5F3DAA8DAF3CCDAD4DAA9D3F3DADAD4A8DAD4DAA8D4DAF52F2F2F2F2F2F2F2F2F2F2F2F2F2F2F2F2F2FF5F5F5F5F5F5F5F5F5F5F5F5F5F5F5F5F5F5F5F5F5F5F5F5F5F5F5F5F5F5F5F5F52F2F2F2F2F2F2F2F2F2F2F2FF52F2F2F7500EFF52F
310
2F2F2FF5A8DADAA2D3DBA8C5A8C6A1D3F4CCA2C59BC5A8C6A1D3DAF5F5F5F5F52F2F2F2F2F2F2F2F2F2F2F2F2F2FF5F5F5F5F5F5F5F5F5F5F5F5F5F5F5F5F5F5F5F5F5F5F5F5F5F5F5F5F5F5F5F5F52F2F2F2F2F2F2F2F2F2F2F2FF52F2F2F0400EFF52F2F2F2FF5CCD4AFCCD3B0CC9B9BBEA1D4DA9B9BBE9B9ABF9BC5B0D4
310
F52F2F2F2F2F2F2F2F2F2F2F2F2F2F2F2F2F2FF5F5F5F5F5F5F5F5F5F5F5F5F5F5F5F5F5F5F5F5F5F5F5F5F5F5F5F5F5F5F5F5F52F2F2F2F2F2F2F2F2F2F2F2FF52F2F2F1402EFF52F2F2F2FF5C5A1BFA1C5A1BFA1BF9BC5A1C59BC59BC59BBF9BC5A1C5F52F2F2F2F2F2F2F2F2F2F2F2F2F2F2F2F2F2F2F2F2F2F2F2F2F2F
310
2F2F2F2F2F2F2F2F2F2F2F2F2F2F2F2F2F2F2F2F2F2F2F2F2F2F2F2F2F2F2F2F2F2F2F2F2FF52F2F2F3400EFF52F2F2F2FF5F5F5F5F5F5F5F5F5F5F5F5F5F5F5F5F5F5F5F5F5F5F5F5F5F5F5F5F5F5F5F5F5F5F5F5F5F5F5F5F5F5F5F5F5F5F5F5F5F5F5F5F5F5F5F5F5F5F5F5F5F5F5F5F5F5F5F5F5F5F5F5F5F5F5F5F5F5
310
F5F5F5F5F5F5F5F5F5F5F52F2F2F3D00EFF52F2F2F2FF52F2F2F2F2F2F2F2F2F2F2F2F2F2F2F2F2F2F2F2F2F2F2F2F2F2F2F2F2F2F2F2F2F2F2F2F2F2F2F2F2F2F2F2F2F2F2F2F2F2F2F2F2F2F2F2F2F2F2F2F2F2F2F2F2F2F2F2F2F2F2F2F2F2F2F2F2F2F2F2F2F2F2F2F2F2F2FF52F2F2F7300EFF5F52F2F2FF52F2F2F2F
310
2F2F2F2F2F2F2F2F2F2F2F2F2F2F2F2F2F2F2F2F2F2F2F2F2F2F2F2F2F2F2F2F2F2F2F2F2F2F2F2F2F2F2F2F2F2F2F2F2F2F2F2F2F2F2F2F2F2F2F2F2F2F2F2F2F2F2F2F2F2F2F2F2F2F2F2F2F2F2F2F2F2F2FF52F2FF54300EFF5F52F2F2FF52F2F2F2F2F2F2F2F2F2F2F2F2F2F2F2F2F2F2F2F2F2F2F2F2F2F2F2F2F2F2F
310
2F2F2F2F2F2F2F2F2F2F2F2F2F2F2F2F2F2F2F2F2F2F2F2F2F2F2F2F2F2F2F2F2F2F2F2F2F2F2F2F2F2F2F2F2F2F2F2F2F2F2F2F2F2F2F2FF52F2FF56500EFF5F52F2F2FF52F2F2F2F2F2F2F2F2F2F2F2F2F2F2F2F2F2F2F2F2F2F2F2F2F2F2F2F2F2F2F2F2F2F2F2F2F2F2F2F2F2F2F2F2F2F2F2F2F2F2F2F2F2F2F2F2F2F
310
2F2F2F2F2F2F2F2F2F2F2F2F2F2F2F2F2F2F2F2F2F2F2F2F2F2F2F2F2FF52F2FF52300EFF5F52F2F2FF52F2F2F2F2F2F2F2F2F2F2F2F2F2F2F2F2F2F2F2F2F2F2F2F2F2F2F2F2F2F2F2F2F2F2F2F2F2F2F2F2F2F2F2F2F2F2F2F2F2F2F2F2F2F2F2F2F2F2F2F2F2F2F2F2F2F2F2F2F2F2F2F2F2F2F2F2F2F2F2F2F2F2F2F2F
310
2F2FF52F2FF51100EFF5F52F2F2FF52F2F2F2F2F2F2F2F2F2F2F2F2F2F2F2F2F2F2F2F2F2F2F2F2F2F2F2F2F2F2F2F2F2F2F2F2F2F2F2F2F2F2F2F2F2F2F2F2F2F2F2F2F2F2F2F2F2F2F2F2F2F2F2F2F2F2F2F2F2F2F2F2F2F2F2F2F2F2F2F2F2F2F2F2F2F2FF52F2FF50106EFF5F52F2F2FF52F2F2F2F2F2F2F2F2F2F2F2F
310
2F2F2F2F2F2F2F2F2F2F2F2F2F2F2F2F2F2F2F2F2F2F2F2F2F2F2F2F2F2F2F2F2F2F2F2F2F2F2F2F2F2F2F2F2F2F2F2F2F2F2F2F2F2F2F2F2F2F2F2F2F2F2F2F2F2F2F2F2F2F2F2F2F2F2FF52F2FF5302CEFF5F52F2F2FF52F2F2F2F2F2F2F2F2F2F2F2F2F2F2F2F2F2F2F2F2F2F2F2F2F2F2F2F2F2F2F2F2F2F2F2F2F2F2F
310
2F2F2F2F2F2F2F2F2F2F2F2F2F2F2F2F2F2F2F2F2F2F2F2F2F2F2F2F2F2F2F2F2F2F2F2F2F2F2F2F2F2F2F2F2F2F2F2FF52F2FF52D31EFF5F52F2F2FF52F2F2F2F2F2F2F2F2F2F2F2F2F2F2F2F2F2F2F2F2F2F2F2F2F2F2F2F2F2F2F2F2F2F2F2F2F2F2F2F2F2F2F2F2F2F2F2F2F2F2F2F2F2F2F2F2F2F2F2F2F2F2F2F2F2F
310
2F2F2F2F2F2F2F2F2F2F2F2F2F2F2F2F2F2F2F2F2FF52F2FF52020EFF5F52F2F2FF52F2F2F2F2F2F2F2F2F2F2F2F2F2F2F2F2F2F2F2F2F2F2F2F2F2F2F2F2F2F2F2F2F2F2F2F2F2F2F2F2F2F2F2F2F2F2F2F2F2F2F2F2F2F2F2F2F2F2F2F2F2F2F2F2F2F2F2F2F2F2F2F2F2F2F2F2F2F2F2F2F2F2F2F2F2F2FF52F2FF52C20
310
EFF5F52F2F2FF52F2F2F2F2F2F2F2F2F2F2F2F2F2F2F2F2F2F2F2F2F2F2F2F2F2F2F2F2F2F2F2F2F2F2F2F2F2F2F2F2F2F2F2F2F2F2F2F2F2F2F2F2F2F2F2F2F2F2F2F2F2F2F2F2F2F2F2F2F2F2F2F2F2F2F2F2F2F2F2F2F2F2F2F2F2F2FF52F2FF53132EFF5F52F2F2FF52F2F2F2F2F2F2F2F2F2F2F2F2F2F2F2F2F2F2F2F
310
2F2F2F2F2F2F2F2F2F2F2F2F2F2F2F2F2F2F2F2F2F2F2F2F2F2F2F2F2F2F2F2F2F2F2F2F2F2F2F2F2F2F2F2F2F2F2F2F2F2F2F2F2F2F2F2F2F2F2F2F2F2F2F2F2F2F2FF52F2FF53132EFF5F52F2F2FF52F2F2F2F2F2F2F2F2F2F2F2F2F2F2F2F2F2F2F2F2F2F2F2F2F2F2F2F2F2F2F2F2F2F2F2F2F2F2F2F2F2F2F2F2F2F2F
310
2F2F2F2F2F2F2F2F2F2F2F2F2F2F2F2F2F2F2F2F2F2F2F2F2F2F2F2F2F2F2F2F2F2F2F2F2F2F2F2FF52F2FF52020EFF5F52F2F2FF52F2F2F2F2F2F2F2F2F2F2F2F2F2F2F2F2F2F2F2F2F2F2F2F2F2F2F2F2F2F2F2F2F2F2F2F2F2F2F2F2F2F2F2F2F2F2F2F2F2F2F2F2F2F2F2F2F2F2F2F2F2F2F2F2F2F2F2F2F2F2F2F2F2F
310
2F2F2F2F2F2F2F2F2F2F2F2F2FF52F2FF52C20EFF5F52F2F2FF52F2F2F2F2F2F2F2F2F2F2F2F2F2F2F2F2F2F2F2F2F2F2F2F2F2F2F2F2F2F2F2F2F2F2F2F2F2F2F2F2F2F2F2F2F2F2F2F2F2F2F2F2F2F2F2F2F2F2F2F2F2F2F2F2F2F2F2F2F2F2F2F2F2F2F2F2F2F2F2F2F2F2F2F2F2F2FF52F2FF5526FEFF5F52F2F2FF52F
310
2F2F2F2F2F2F2F2F2F2F2F2F2F2F2F2F2F2F2F2F2F2F2F2F2F2F2F2F2F2F2F2F2F2F2F2F2F2F2F2F2F2F2F2F2F2F2F2F2F2F2F2F2F2F2F2F2F2F2F2F2F2F2F2F2F2F2F2F2F2F2F2F2F2F2F2F2F2F2F2F2F2F2F2F2F2FF52F2FF52035EFF5F52F2F2FF52F2F2F2F2F2F2F2F2F2F2F2F2F2F2F2F2F2F2F2F2F2F2F2F2F2F2F2F
310
2F2F2F2F2F2F2F2F2F2F2F2F2F2F2F2F2F2F2F2F2F2F2F2F2F2F2F2F2F2F2F2F2F2F2F2F2F2F2F2F2F2F2F2F2F2F2F2F2F2F2F2F2F2F2F2F2F2F2FF52F2FF52020EFF5F52F2F2FF52F2F2F2F2F2F2F2F2F2F2F2F2F2F2F2F2F2F2F2F2F2F2F2F2F2F2F2F2F2F2F2F2F2F2F2F2F2F2F2F2F2F2F2F2F2F2F2F2F2F2F2F2F2F2F
310
2F2F2F2F2F2F2F2F2F2F2F2F2F2F2F2F2F2F2F2F2F2F2F2F2F2F2F2F2F2F2F2FF52F2FF5382CEFF52F2F2F2FF52F2F2F2F2F2F2F2F2F2F2F2F2F2F2F2F2F2F2F2F2F2F2F2F2F2F2F2F2F2F2F2F2F2F2F2F2F2F2F2F2F2F2F2F2F2F2F2F2F2F2F2F2F2F2F2F2F2F2F2F2F2F2F2F2F2F2F2F2F2F2F2F2F2F2F2F2F2F2F2F2F2F
310
2F2F2F2F2FF52F2F2F352CEFF52F2F2F2FF52F2F2F2F2F2F2F2F2F2F2F2F2F2F2F2F2F2F2F2F2F2F2F2F2F2F2F2F2F2F2F2F2F2F2F2F2F2F2F2F2F2F2F2F2F2F2F2F2F2F2F2F2F2F2F2F2F2F2F2F2F2F2F2F2F2F2F2F2F2F2F2F2F2F2F2F2F2F2F2F2F2F2F2F2F2F2FF52F2F2F2020EFF52F2F2F2FF52F2F2F2F2F2F2F2F2F
310
2F2F2F2F2F2F2F2F2F2F2F2F2F2F2F2F2F2F2F2F2F2F2F2F2F2F2F2F2F2F2F2F2F2F2F2F2F2F2F2F2F2F2F2F2F2F2F2F2F2F2F2F2F2F2F2F2F2F2F2F2F2F2F2F2F2F2F2F2F2F2F2F2F2F2F2F2F2FF52F2F2F2020EFF52F2F2F2FF52F2F2F2F2F2F2F2F2F2F2F2F2F2F2F2F2F2F2F2F2F2F2F2F2F2F2F2F2F2F2F2F2F2F2F2F
310
2F2F2F2F2F2F2F2F2F2F2F2F2F2F2F2F2F2F2F2F2F2F2F2F2F2F2F2F2F2F2F2F2F2F2F2F2F2F2F2F2F2F2F2F2F2F2F2F2F2F2FF52F2F2F2020EFF52F2F2F2FF52F2F2F2F2F2F2F2F2F2F2F2F2F2F2F2F2F2F2F2F2F2F2F2F2F2F2F2F2F2F2F2F2F2F2F2F2F2F2F2F2F2F2F2F2F2F2F2F2F2F2F2F2F2F2F2F2F2F2F2F2F2F2F
310
2F2F2F2F2F2F2F2F2F2F2F2F2F2F2F2F2F2F2F2F2F2F2F2FF52F2F2F2C2DEFF52F2F2F2FF52F2F2F2F2F2F2F2F2F2F2F2F2F2F2F2F2F2F2F2F2F2F2F2F2F2F2F2F2F2F2F2F2F2F2F2F2F2F2F2F2F2F2F2F2F2F2F2F2F2F2F2F2F2F2F2F2F2F2F2F2F2F2F2F2F2F2F2F2F2F2F2F2F2F2F2F2F2F2F2F2F2F2F2F2F2F2FF52F2F
310
2F332CEFF52F2F2F2FF52F2F2F2F2F2F2F2F2F2F2F2F2F2F2F2F2F2F2F2F2F2F2F2F2F2F2F2F2F2F2F2F2F2F2F2F2F2F2F2F2F2F2F2F2F2F2F2F2F2F2F2F2F2F2F2F2F2F2F2F2F2F2F2F2F2F2F2F2F2F2F2F2F2F2F2F2F2F2F2F2F2F2F2F2F2F2FF52F2F2F2020EFF52F2F2F2FF52F2F2F2F2F2F2F2F2F2F2F2F2F2F2F2F2F
310
2F2F2F2F2F2F2F2F2F2F2F2F2F2F2F2F2F2F2F2F2F2F2F2F2F2F2F2F2F2F2F2F2F2F2F2F2F2F2F2F2F2F2F2F2F2F2F2F2F2F2F2F2F2F2F2F2F2F2F2F2F2F2F2F2F2F2F2F2F2FF52F2F2F350DEFF52F2F2F2FF52F2F2F2F2F2F2F2F2F2F2F2F2F2F2F2F2F2F2F2F2F2F2F2F2F2F2F2F2F2F2F2F2F2F2F2F2F2F2F2F2F2F2F2F
310
2F2F2F2F2F2F2F2F2F2F2F2F2F2F2F2F2F2F2F2F2F2F2F2F2F2F2F2F2F2F2F2F2F2F2F2F2F2F2F2F2F2F2FF52F2F2F0D0AEFF52F2F2F2FF52F2F2F2F2F2F2F2F2F2F2F2F2F2F2F2F2F2F2F2F2F2F2F2F2F2F2F2F2F2F2F2F2F2F2F2F2F2F2F2F2F2F2F2F2F2F2F2F2F2F2F2F2F2F2F2F2F2F2F2F2F2F2F2F2F2F2F2F2F2F2F
310
2F2F2F2F2F2F2F2F2F2F2F2F2F2F2F2FF52F2F2F5249EFF5F52F2F2FF52F2F2F2F2F2F2F2F2F2F2F2F2F2F2F2F2F2F2F2F2F2F2F2F2F2F2F2F2F2F2F2F2F2F2F2F2F2F2F2F2F2F2F2F2F2F2F2F2F2F2F2F2F2F2F2F2F2F2F2F2F2F2F2F2F2F2F2F2F2F2F2F2F2F2F2F2F2F2F2F2F2F2F2F2F2F2FF52F2FF53235EFF5F52F2F
310
2FF52F2F2F2F2F2F2F2F2F2F2F2F2F2F2F2F2F2F2F2F2F2F2F2F2F2F2F2F2F2F2F2F2F2F2F2F2F2F2F2F2F2F2F2F2F2F2F2F2F2F2F2F2F2F2F2F2F2F2F2F2F2F2F2F2F2F2F2F2F2F2F2F2F2F2F2F2F2F2F2F2F2F2F2F2F2F2FF52F2FF52E33EFF5F52F2F2FF52F2F2F2F2F2F2F2F2F2F2F2F2F2F2F2F2F2F2F2F2F2F2F2F2F
310
2F2F2F2F2F2F2F2F2F2F2F2F2F2F2F2F2F2F2F2F2F2F2F2F2F2F2F2F2F2F2F2F2F2F2F2F2F2F2F2F2F2F2F2F2F2F2F2F2F2F2F2F2F2F2F2F2F2F2F2F2F2FF52F2FF52E31EFF5F52F2F2FF52F2F2F2F2F2F2F2F2F2F2F2F2F2F2F2F2F2F2F2F2F2F2F2F2F2F2F2F2F2F2F2F2F2F2F2F2F2F2F2F2F2F2F2F2F2F2F2F2F2F2F2F
310
2F2F2F2F2F2F2F2F2F2F2F2F2F2F2F2F2F2F2F2F2F2F2F2F2F2F2F2F2F2F2F2F2F2F2FF52F2FF53735EFF5F52F2F2FF52F2F2F2F2F2F2F2F2F2F2F2F2F2F2F2F2F2F2F2F2F2F2F2F2F2F2F2F2F2F2F2F2F2F2F2F2F2F2F2F2F2F2F2F2F2F2F2F2F2F2F2F2F2F2F2F2F2F2F2F2F2F2F2F2F2F2F2F2F2F2F2F2F2F2F2F2F2F2F
310
2F2F2F2F2F2F2F2FF52F2FF50D0AEFF5F52F2F2FF52F2F2F2F2F2F2F2F2F2F2F2F2F2F2F2F2F2F2F2F2F2F2F2F2F2F2F2F2F2F2F2F2F2F2F2F2F2F2F2F2F2F2F2F2F2F2F2F2F2F2F2F2F2F2F2F2F2F2F2F2F2F2F2F2F2F2F2F2F2F2F2F2F2F2F2F2F2F2F2F2F2F2F2F2F2F2FF52F2FF53535EFF5F52F2F2FF5F5F5F5F5F5F5
310
F5F5F5F5F5F5F5F5F5F5F5F5F5F5F5F5F5F5F5F5F5F5F5F5F5F5F5F5F5F5F5F5F5F5F5F5F5F5F5F5F5F5F5F5F5F5F5F5F5F5F5F5F5F5F5F5F5F5F5F5F5F5F5F5F5F5F5F5F5F5F5F5F5F5F5F5F5F5F5F5F5F52F2FF56573EFF5F52F2F2FF52F2F2F2F2F2F2F2F2F2F2F2F2F2F2F2F2F2F2F2F2F2F2F2F2F2F2F2F2F2F2F2F2F
310
2F2F2F2F2F2F2F2F2F2F2F2F2F2F2F2F2F2F2F2F2F2F2F2F2F2F2F2F2F2F2F2F2F2F2F2F2F2F2F2F2F2F2F2F2F2F2F2F2F2F2F2F2FF5F52F2FF56573EFF5F52F2F2FF52F2F2F2F2F2F2F2F2F2F2F2F2F2F2F2F2F2F2F2F2F2F2F2F2F2F2F2F2F2F2F2F2F2F2F2F2F2F2F2F2F2F2F2F2F2F2F2F2F2F2F2F2F2F2F2F2F2F2F2F
310
2F2F2F2F2F2F2F2F2F2F2F2F2F2F2F2F2F2F2F2F2F2F2F2F2F2FF5F52F2FF53130EFF5F52F2F2FF52F2F2F2F2F2F2F2F2F2F2F2F2F2F2F2F2F2F2F2F2F2F2F2F2F2F2F2F2F2F2F2F2F2F2F2F2F2F2F2F2F2F2F2F2F2F2F2F2F2F2F2F2F2F2F2F2F2F2F2F2F2F2F2F2F2F2F2F2F2F2F2F2F2F2F2F2F2F2F2F2F2F2F2F2F2FF5
310
F52F2FF56F72EFF5F52F2F2FF52F2F2F2F2F2F2F2F2F2F2F2F2F2F2F2F2F2F2F2F2F2F2F2F2F2F2F2F2F2F2F2F2F2F2F2F2F2F2F2F2F2F2F2F2F2F2F2F2F2F2F2F2F2F2F2F2F2F2F2F2F2F2F2F2F2F2F2F2F2F2F2F2F2F2F2F2F2F2F2F2F2F2F2F2F2FF5F52F2FF52C2EEFF5F52F2F2FF52F2F2F2F2F2F2F2F2F2F2F2F2F2F
310
2F2F2F2F2F2F2F2F2F2F2F2F2F2F2F2FEC2F2F2F2F2F2F2F2F2F2F2F2F2F2F2F2F2F2F2F2F2F2F2F2F2F2F2F2FEC2F2F2F2F2F2F2F2F2F2F2F2F2F2F2F2F2F2F2F2F2F2F2F2F2F2FF5F52F2FF52C2EEFF5F52F2F2FF52F2F2F2F2F2F2F2F2F2F2F2F2F2F2F2F2F2F2F2F2F2F2FF5F5F52F2FECECECECEC2F2F2F2F2F2F2F2F
310
2F2F2F2F2F2F2F2F2F2F2F2F2F2F2F2FECECECECEC2F2F2F2F2F2F2F2F2F2F2F2F2F2F2F2F2F2F2F2F2F2F2F2FF5F52F2FF5362CEFF5F52F2F2FF52F2F2F2F2F2F2F2F2F2F2F2F2F2F2F2F2F2F2F2F2F2FF5F52FF5ECECECECECECECEC2F2F2F2F2F2F2F2F2F2F2F2F2F2F2F2F2F2F2F2F2FECECECECECECECECEC2F2F2F2F
310
2F2F2F2F2F2F2F2F2F2F2F2F2F2F2F2F2F2FF5F52F2FF52C30EFF5F52F2F2FF52F2F2F2F2F2F2F2F2F2F2F2F2F2F2F2F2F2F2F2F2FC3F5F5ECECECEC2F2FEC2F2FECECEC2F2F2F2F2F2F2F2F2F2F2F2F2F2F2F2F2F2FECECEC2FECECECECECECECEC2F2F2F2F2F2F2F2F2F2F2F2F2F2F2F2F2F2F2F2FF5F52F2FF53932EFF5
310
F52F2F2FF52F2F2F2F2F2F2F2F2F2F2F2F2F2F2F2F2F2F2F2F2F2FC3F5ECEC2F2FECECECECEC2FECECEC2F2F2F2F2F2F2F2F2F2F2F2F2F2F2FECECBE2FECEC2FECECF5F5ECECECECEC2F2F2F2F2F2F2F2F2F2F2F2F2F2F2F2F2F2FF5F52F2FF52E32EFF5F52F2F2FF52F2F2F2F2F2F2F2F2F2F2F2F2F2F2F2F2F2F2F2F2FEC
310
ECF52F2FECEC2F2FEC2F2FECEC2FECECEC2F2F2F2F2F2F2F2F2F2F2FECECECECBEEC2FECECF5F5F5F52FEC2FECECEC2F2F2F2F2F2F2F2F2F2F2F2F2F2F2F2F2FF5F52F2FF52C31EFF52F2F2F2FF52F2F2F2F2F2F2F2F2F2F2F2F2F2F2F2F2F2F2FECECECECF5F5F52F2FECECECECEC2F2FECECECECECEC2F2F2F2F2F2F2F2F
310
ECECEC2F2FBEECEC2FF5F5F5C3EC2F2FECEC2FECECEC2F2F2F2F2F2F2F2F2F2F2F2F2F2F2FF5F52F2F2F2C20EFF52F2F2F2FF52F2F2F2F2F2F2F2F2F2F2F2F2F2F2F2F2FECECECEC2FECEC2FF5ECECECECECECECECEC2F2FECECBEECEC2F2F2F2F2FECBEEC2F2F2F2FBE2F2FECECECECECF5ECEC2F2FECECECECECEC2F2F2F
310
2F2F2F2F2F2F2F2F2F2FF5F52F2F2F322CEFF52F2F2F2FF52F2F2F2F2F2F2F2F2F2F2F2F2F2F2F2FECECBE2FECEC2FECECECECEC2F2FEC2F2FECECECEC2F2FBE2FBEBEEC2FECF5F5BEBE2F2F2F2FBEECEC2F2FECECF5F5EC2FECEC2F2FECECECECECEC2F2F2F2F2F2F2F2F2F2F2FF5F52F2F2F3032EFF52F2F2F2FF52F2F2F
310
2F2F2F2F2F2F2F2F2F2F2FECECEC2FBEEC2F2FECEC2F2FEC2FECECECECECEC2FECECECECBE2FBEBEECECECC3C3BEF52F2F2F2FBE2F2FECECECECEC2F2FECEC2FECEC2FF5F52FECECECEC2F2F2F2F2F2F2F2F2FF5F52F2F2F2C31EFF52F2F2F2FF52F2F2F2F2F2F2F2F2F2F2F2FECECECECF5F5BE2FECEC2FEC2F2FECEC2F2F
310
EC2F2FEC2FECEC2F2FBE2FBEBE2FEC2FECC3BEF5F5F52F2FBEECEC2F2FECEC2FECEC2F2FECEC2FECECF5C3EC2FECECECEC2F2F2F2F2F2F2FF5F52F2F2F3736EFF52F2F2F2FF52F2F2F2F2F2F2F2F2F2FECECECEC2F2FC3C3C3F5F5ECECECECEC2F2FECECECECEC2FECECECECECBE2FBEBEECECECF5F5BEBEBE2F2F2FBE2F2F
310
ECECECECEC2F2FECEC2F2FF5F5F5C3EC2FEC2F2FECECEC2F2F2F2F2F2FF5F52F2F2F322EEFF52F2F2F2FF52F2F2F2F2F2F2F2F2FECECBEBE2F2F2FC3C3F5F5ECF52FEC2F2FECEC2F2FEC2F2FECEC2FEC2F2FBE2FBEBE2FEC2FF5F5BEBEBE2FBE2FBEECECECECBEBEECECEC2F2FECF5F5ECF5F5F5ECECECEC2FECEC2F2F2F2F
310
2F2FF5F52F2F2F362CEFF52F2F2F2FF52F2F2F2F2F2F2F2F2FEC2FBEBE2F2F2FF5F5F52F2FECEC2FECEC2F2FECECECECEC2F2FECECECECBE2FBEBEECECEC2F2FBEBEBEBEBEECBEECECEC2FBEBEECECECECEC2F2FEC2FECF5F52F2FECECECECEC2F2F2F2F2F2FF5F52F2F2F2030EFF52F2F2F2FF52F2F2F2F2F2F2F2F2FECEC
310
BEBE2F2F2F2FF5F5ECEC2F2FEC2F2FECEC2F2FECEC2FECEC2F2FEC2FECBEBEBEECEC2FECECBEBEBEBEBEBEEC2FEC2FEC2F2F2F2FECEC2FECEC2FECECF52FECEC2F2FECECEC2F2F2F2F2F2FF5F52F2F2F3831EFF52F2F2F2FF52F2F2F2F2F2F2F2F2FEC2FBEECEC2F2F2F2FBE2FECECEC2FECECEC2FECECEC2FECECECECEC2F
310
ECEC2FECBE2FECEC2FECBEBEBEBEECEC2FECBEEC2F2F2F2F2F2F2FECEC2FEC2FECECEC2F2FECEC2FECEC2F2F2F2F2F2FF5F52F2F2F4772EFF5F52F2F2FF52F2F2F2F2F2F2F2F2FECECBEEC2FECEC2F2FBEECEC2F2FECEC2FECECECECECECECEC2FECECEC2F2FECECECECECECEC2FBEBEECEC2F2FECECBEECEC2F2F2F2F2F2F
310
2FECECECECEC2F2FECEC2F2FECECEC2F2F2F2F2F2FF5F52F2FF53133EFF5F52F2F2FF52F2F2F2F2F2F2F2F2FEC2FBEBEECEC2FECECBE2FECECECEC2F2FECEC2F2FEC2F2FEC2FECEC2FECEC2F2FECECEC2FECEC2FEC2F2F2FECECECBE2F2FECEC2F2F2F2F2F2F2FECBEECECEC2F2FECEC2FECEC2F2F2F2F2F2FF5F52F2FF50A
310
31EFF5F52F2F2FF52F2F2F2F2F2F2F2F2FECECBEEC2F2FECBEBE2FECECECECECECEC2F2FECECBEECEC2FECECECECECECECEC2F2FECEC2FECEC2F2FECECECECECBEECEC2F2FECEC2F2F2F2FECECBEECEC2FECEC2F2FECECEC2F2F2F2F2F2FF5F52F2FF5302EEFF5F52F2F2FF52F2F2F2F2F2F2F2F2FEC2FBEBEECBEBE2FECEC
310
ECEC2F2FEC2F2FECECECBEBEECECECECECEC2FEC2F2FECECECECECEC2F2FECEC2FECECECECBEECECECEC2F2FECECECEC2FECEC2FECECEC2FECEC2FECEC2F2F2F2F2F2FF5F52F2FF53237EFF5F52F2F2FF52F2F2F2F2F2F2F2F2FECECBEBEBE2F2FEC2FEC2FECECEC2FECECECECEC2F2F2F2FECECECECECEC2F2FEC2F2FEC2F
310
2FECEC2FECECECEC2F2FBE2F2FEC2FECEC2FBE2FECEC2F2FECEC2FECEC2F2FECECEC2F2F2F2F2F2FF5F52F2FF53638EFF5F52F2F2FF52F2F2F2F2F2F2F2F2FEC2FBE2F2FECECECEC2FECECECECBEECECECEC2F2F2F2F2F2F2FECECEC2FECECECECECECECEC2FECECECECEC2FECECBEECEC2FECEC2FECECEC2F2FECEC2FECEC
310
2FECECEC2FECEC2F2F2F2F2F2FF5F52F2FF53539EFF5F52F2F2FF52F2F2F2F2F2F2F2F2FECEC2FECECECECECECECECECBEECBEBEECEC2F2F2F2F2F2F2F2F2F2FECECEC2FEC2F2FEC2F2FEC2FECEC2F2FECEC2FBE2F2FEC2F2FECECBE2FECEC2FECEC2F2FECEC2FECBEBEEC2F2F2F2F2F2FF5F52F2FF53038EFF5F52F2F2FF5
310
2F2F2F2F2F2F2F2F2FECECECECECECECECECEC2FECEC2FBEEC2F2FEC2F2F2F2F2F2F2F2F2F2FECECECECECECECECEC2FEC2F2FECEC2F2FECBEECEC2FECEC2F2FECEC2FECEC2F2FECEC2FECECBEBEBEEC2F2F2F2F2F2FF5F52F2FF53230EFF5F52F2F2FF52F2F2F2F2F2F2F2F2FECBEBEECECEC2FECECECEC2F2FECBEBEECEC
310
2FECEC2F2F2F2F2F2F2F2F2F2FECECECECEC2FECEC2FECEC2F2FECEC2FBE2F2FECEC2FECECBEECEC2F2FECEC2FECEC2FBEBE2FEC2F2F2F2F2F2F2FF5F52F2FF52E30EFF5F52F2F2FF52F2F2F2F2F2F2F2F2F2FECECEC2F2FEC2F2FEC2FECEC2FBEEC2F2FECEC2FEC2F2F2F2F2F2F2F2F2F2F2FECECECECEC2FECEC2FECEC2F
310
2FECBEECEC2F2FECEC2FEC2F2FECEC2FECEC2F2FBEBE2FEC2F2F2F2F2F2F2F2FF5F52F2FF53536EFF5F52F2F2FF52F2F2F2F2F2F2F2F2F2F2F2FECECEC2FECEC2FECEC2FECBEBEECEC2F2FECECECECBEBE2F2F2F2F2F2F2F2FBEECEC2FECEC2FECEC2FECEC2FBE2F2FECEC2F2FECECECEC2FF5F5F5F5ECBEBE2FEC2F2F2F2F
310
2F2F2F2F2FF5F52F2FF53936EFF5F52F2F2FF52F2F2F2F2F2F2F2F2F2F2F2F2F2FECEC2F2FECEC2FECECBEEC2F2FECEC2F2FECECBEEC2F2F2F2F2F2F2F2FBEEC2F2F2F2FECEC2FECEC2FECBEECEC2F2FECEC2FBE2FECECC3C3F5F5BEBEECEC2F2F2F2F2F2F2F2F2F2FF5F52F2FF52030EFF5F52F2F2FF52F2F2F2F2F2F2F2F
310
2F2F2F2F2F2F2F2FECEC2F2FEC2F2FBEECECEC2F2FECEC2F2FBEBEECEC2F2F2F2F2F2F2F2F2F2F2F2F2FECECEC2FECECBEECECECEC2F2FECECEC2F2FC3C3BEBEBE2FEC2F2F2F2F2F2F2F2F2F2F2FF5F52F2FF52E38EFF5F52F2F2FF52F2F2F2F2F2F2F2F2F2F2F2F2F2F2F2F2F2FEC2F2FECECBEBEECECECEC2F2FECECBEEC
310
2F2FEC2F2F2F2F2F2F2F2F2F2FECEC2F2FECECEC2FBE2F2FEC2FECEC2FBE2FECECC3BEBEBE2FEC2F2F2F2F2F2F2F2F2F2F2F2FF5F52F2FF52D37EFF5F52F2F2FF52F2F2F2F2F2F2F2F2F2F2F2F2F2F2F2F2F2F2FECEC2F2FBEEC2F2FECECECEC2F2FBEBEECEC2FECEC2F2F2F2F2F2FECEC2F2FECECBEECECECBEECEC2FECEC
310
2FECECEC2FECBEBEBEECEC2F2F2F2F2F2F2F2F2F2F2F2F2FF5F52F2FF5352EEFF5F52F2F2FF52F2F2F2F2F2F2F2F2F2F2F2F2F2F2F2F2F2F2F2F2FECECBEBEECEC2F2FECECECECBEEC2F2FEC2F2FECEC2F2FECEC2F2FECECECECBEBE2FBEBE2F2FEC2F2FECECBEECECBEBEBEF5F52F2F2F2F2F2F2F2F2F2F2F2F2F2FF5F52F
310
2FF53433EFF5F52F2F2FF52F2F2F2F2F2F2F2F2F2F2F2F2F2F2F2F2F2F2F2F2F2F2FBEBE2F2FECEC2F2FECECBEECECEC2FECEC2F2FECBE2F2FECECECEC2F2FBEBEECEC2FECEC2FECEC2F2FEC2FBEBEBEEC2F2F2F2F2F2F2F2F2F2F2F2F2F2F2F2FF5F52F2FF53035EFF52F2F2F2FF52F2F2F2F2F2F2F2F2F2F2F2F2F2F2F2F
310
2F2F2F2F2F2F2F2F2FECEC2F2FECEC2F2FBEBEECECECEC2FECECBEBEECECECEC2F2FECECBEBE2F2FECEC2FECEC2FECECBEBEBEBEEC2F2F2F2F2F2F2F2F2F2F2F2F2F2F2F2F2FF5F52F2F2F2030EFF52F2F2F2FF52F2F2F2F2F2F2F2F2F2F2F2F2F2F2F2F2F2F2F2F2F2F2F2F2F2FECECEC2F2FECECBEEC2F2FEC2FECEC2FEC
310
BEECEC2F2FECEC2F2FBEBEECEC2FECEC2FECECEC2FBEBEBEEC2F2F2F2F2F2F2F2F2F2F2F2F2F2F2F2F2F2FF5F52F2F2F3631EFF52F2F2F2FF52F2F2F2F2F2F2F2F2F2F2F2F2F2F2F2F2F2F2F2F2F2F2F2F2F2F2F2FECECEC2F2FBEBEECEC2FECEC2FECECBE2F2FECEC2F2FECECBEBE2F2FEC2F2FECECECECBEBEBEEC2F2F2F
310
2F2F2F2F2F2F2F2F2F2F2F2F2F2F2F2FF5F52F2F2F3230EFF52F2F2F2FF52F2F2F2F2F2F2F2F2F2F2F2F2F2F2F2F2F2F2F2F2F2F2F2F2F2F2F2F2F2FECECECBEEC2F2FEC2F2FECECBEBEECEC2F2FECEC2F2FBEBEECEC2F2FEC2FECECBEBEBEEC2F2F2F2F2F2F2F2F2F2F2F2F2F2F2F2F2F2F2F2FF5F52F2F2F3932EFF52F2F
310
2F2FF52F2F2F2F2FC3C3C3C3C3C3C3C3C3C3C3C3C3C3C3C32F2F2F2F2F2F2F2F2F2F2FECBEBEECEC2FECEC2F2FECBE2F2FECEC2F2FECECBEBE2F2FECECECEC2FBEBEBEEC2F2F2F2F2F2F2F2F2F2F2F2F2F2F2F2F2F2F2F2F2FF5F52F2F2F2E30EFF52F2F2F2FF52F2F2F2F2FC3C3C3C3C3C3C32F2F2F2F2F2F2F2FC32F2F2F
310
2F2F2F2F2F2F2F2F2FBEECEC2FEC2F2FECECBEBEECEC2F2FECEC2F2FECBEECECECEC2FBEBEBEBEEC2F2F2F2F2F2F2F2F2F2F2F2F2F2F2F2F2F2F2F2F2F2FF5F52F2F2F302CEFF52F2F2F2FF52F2F2F2F2FC3C3C3C3C3C3C32F2FC3C3C3C3C3C3C32F2F2F2F2F2F2F2F2F2F2F2F2F2FECEC2FECEC2F2FECBE2F2FECEC2F2FEC
310
ECECBE2FBEBEBEBEBEBEECEC2F2F2F2F2F2F2F2F2F2F2F2F2F2F2F2F2F2F2F2F2F2F2FF5F52F2F2F0A33EFF52F2F2F2FF52F2F2F2F2FC3C3C3C3C3C32F2F2FC3C3C3C3C3C3C32F2F2F2F2F2F2F2F2F2F2F2F2F2F2F2FECEC2FECECBEBEECEC2F2FECECBEBEBEBEBEBEBEBEBEECECEC2F2F2F2F2F2F2F2F2F2F2F2F2F2F2F2F
310
2F2F2F2F2F2F2F2FF5F52F2F2F3133EFF52F2F2F2FF52F2F2F2F2FC3C3C3C3C3C3C3C3C3C3C3C3C3C3C3C32F2F2F2F2F2F2F2F2F2F2F2F2F2F2F2F2F2FECEC2FECBE2F2FBEBEBEBEBEBEBEBEBEECECECEC2F2F2F2F2F2F2F2F2F2F2F2F2F2F2F2F2F2F2F2F2F2F2F2F2F2F2FF5F52F2F2F2C20EFF52F2F2F2FF52F2F2F2F2F
310
C32FC3C3C3C3C3C3C3C3C3C3C3C32FC32F2F2F2F2F2F2F2F2F2F2F2F2F2F2F2F2F2F2FECECECBEBEBEBEBEBEBEECECECECEC2F2F2F2F2F2F2F2F2F2F2F2F2F2F2F2F2F2F2F2F2F2F2F2F2F2F2F2F2F2F2FF5F52F2F2F2E32EFF5F52F2F2FF52F2F2F2F2FC3C3C3C3C3C3C3C3C3C3C3C3C3C3C3C32F2F2F2F2F2F2F2F2F2F2F
310
2F2F2F2F2F2F2F2F2F2FBEBEBEBEECEC2F2F2F2F2F2F2F2F2F2F2F2F2F2F2F2F2F2F2F2F2F2F2F2F2F2F2F2F2F2F2F2F2F2F2F2F2F2FF5F52F2FF5726EEFF5F52F2F2FF52F2F2F2F2F2F2F2F2F2F2F2F2F2F2F2F2F2F2F2F2F2F2F2F2F2F2F2F2F2F2F2F2F2F2F2F2F2F2F2F2F2F2F2F2F2F2F2F2F2F2F2F2F2F2F2F2F2F2F
310
2F2F2F2F2F2F2F2F2F2F2F2F2F2F2F2F2F2F2F2F2F2F2F2F2F2F2FF5F52F2FF53533EFF5F52F2F2FF5F5F5F5F5F5F5F5F5F5F5F5F5F5F5F5F5F5F5F5F5F5F5F5F5F5F5F5F5F5F5F5F5F5F5F5F5F5F5F5F5F5F5F5F5F5F5F5F5F5F5F5F5F5F5F5F5F5F5F5F5F5F5F5F5F5F5F5F5F5F5F5F5F5F5F5F5F5F5F5F5F5F5F5F5F5F5
310
F5F52F2FF5494EEFF5F52F2F2FF52F2F2F2F2F2F2F2F2F2F2F2F2F2F2F2F2F2F2F2F2F2F2F2F2F2F2F2F2F2F2F2F2F2F2F2F2F2F2F2F2F2F2F2F2F2F2F2F2F2F2F2F2F2F2F2F2F2F2F2F2F2F2F2F2F2F2F2F2F2F2F2F2F2F2F2F2F2F2F2F2F2F2F2F2F2F2FF52F2FF53132EFF5F52F2F2FF52F2F2F2F2F2F2F2F2F2F2F2F2F
310
2F2F2F2F2F2F2F2F2F2F2F2F2F2F2F2F2F2F2F2F2F2F2F2F2F2F2F2F2F2F2F2F2F2F2F2F2F2F2F2F2F2F2F2F2F2F2F2F2F2F2F2F2F2F2F2F2F2F2F2F2F2F2F2F2F2F2F2F2F2F2F2F2F2FF52F2FF5616EEFF5F52F2F2FF52F2F2F2F2F2F2F2F2F2F2F2F2F2F2F2F2F2F2F2F2F2F2F2F2F2F2F2F2F2F2F2F2F2F2F2F2F2F2F2F
310
2F2F2F2F2F2F2F2F2F2F2F2F2F2F2F2F2F2F2F2F2F2F2F2F2F2F2F2F2F2F2F2F2F2F2F2F2F2F2F2F2F2F2F2F2F2F2FF52F2FF53B20EFF5F52F2F2FF52F2F2F2F2F2F2F2F2F2F2F2F2F2F2F2F2F2F2F2F2F2F2F2F2F2F2F2F2F2F2F2F2F2F2F2F2F2F2F2F2F2F2F2F2F2F2F2F2F2F2F2F2F2F2F2F2F2F2F2F2F2F2F2F2F2F2F
310
2F2F2F2F2F2F2F2F2F2F2F2F2F2F2F2F2F2F2F2FF52F2FF52075EFF5F52F2F2FF52F2F2F2F2F2F2F2F2F2F2F2F2F2F2F2F2F2F2F2F2F2F2F2F2F2F2F2F2F2F2F2F2F2F2F2F2F2F2F2F2F2F2F2F2F2F2F2F2F2F2F2F2F2F2F2F2F2F2F2F2F2F2F2F2F2F2F2F2F2F2F2F2F2F2F2F2F2F2F2F2F2F2F2F2F2F2FF52F2FF57468EF
310
F5F52F2F2FF52F2F2F2F2F2F2F2F2F2F2F2F2F2F2F2F2F2F2F2F2F2F2F2F2F2F2F2F2F2F2F2F2F2F2F2F2F2F2F2F2F2F2F2F2F2F2F2F2F2F2F2F2F2F2F2F2F2F2F2F2F2F2F2F2F2F2F2F2F2F2F2F2F2F2F2F2F2F2F2F2F2F2F2F2F2F2FF52F2FF5302CEFF5F52F2F2FF52F2F2F2F2F2F2F2F2F2F2F2F2F2F2F2F2F2F2F2F2F
310
2F2F2F2F2F2F2F2F2F2F2F2F2F2F2F2F2F2F2F2F2F2F2F2F2F2F2F2F2F2F2F2F2F2F2F2F2F2F2F2F2F2F2F2F2F2F2F2F2F2F2F2F2F2F2F2F2F2F2F2F2F2F2F2F2F2FF52F2FF56173EFF5F52F2F2FF52F2F2F2F2F2F2F2F2F2F2F2F2F2F2F2F2F2F2F2F2F2F2F2F2F2F2F2F2F2F2F2F2F2F2F2F2F2F2F2F2F2F2F2F2F2F2F2F
310
2F2F2F2F2F2F2F2F2F2F2F2F2F2F2F2F2F2F2F2F2F2F2F2F2F2F2F2F2F2F2F2F2F2F2F2F2F2F2FF52F2FF52C20EFF5F52F2F2FF52F2F2F2F2F2F2F2F2F2F2F2F2F2F2F2F2F2F2F2F2F2F2F2F2F2F2F2F2F2F2F2F2F2F2F2F2F2F2F2F2F2F2F2F2F2F2F2F2F2F2F2F2F2F2F2F2F2F2F2F2F2F2F2F2F2F2F2F2F2F2F2F2F2F2F
310
2F2F2F2F2F2F2F2F2F2F2F2FF52F2FF52C2DEFF5F52F2F2FF52F2F2F2F2F2F2F2F2F2F2F2F2F2F2F2F2F2F2F2F2F2F2F2F2F2F2F2F2F2F2F2F2F2F2F2F2F2F2F2F2F2F2F2F2F2F2F2F2F2F2F2F2F2F2F2F2F2F2F2F2F2F2F2F2F2F2F2F2F2F2F2F2F2F2F2F2F2F2F2F2F2F2F2F2F2F2FF52F2FF53030EFF5F52F2F2FF52F2F
310
2F2F2F2F2F2F2F2F2F2F2F2F2F2F2F2F2F2F2F2F2F2F2F2F2F2F2F2F2F2F2F2F2F2F2F2F2F2F2F2F2F2F2F2F2F2F2F2F2F2F2F2F2F2F2F2F2F2F2F2F2F2F2F2F2F2F2F2F2F2F2F2F2F2F2F2F2F2F2F2F2F2F2F2F2FF52F2FF5742DEFF5F52F2F2FF52F2F2F2F2F2F2F2F2F2F2F2F2F2F2F2F2F2F2F2F2F2F2F2F2F2F2F2F2F
310
2F2F2F2F2F2F2F2F2F2F2F2F2F2F2F2F2F2F2F2F2F2F2F2F2F2F2F2F2F2F2F2F2F2F2F2F2F2F2F2F2F2F2F2F2F2F2F2F2F2F2F2F2F2F2F2F2F2FF52F2FF52C2EEFF5F52F2F2FF52F2F2F2F2F2F2F2F2F2F2F2F2F2F2F2F2F2F2F2F2F2F2F2F2F2F2F2F2F2F2F2F2F2F2F2F2F2F2F2F2F2F2F2F2F2F2F2F2F2F2F2F2F2F2F2F
310
2F2F2F2F2F2F2F2F2F2F2F2F2F2F2F2F2F2F2F2F2F2F2F2F2F2F2F2F2F2F2FF52F2FF52064EFF5F52F2F2FF52F2F2F2F2F2F2F2F2F2F2F2F2F2F2F2F2F2F2F2F2F2F2F2F2F2F2F2F2F2F2F2F2F2F2F2F2F2F2F2F2F2F2F2F2F2F2F2F2F2F2F2F2F2F2F2F2F2F2F2F2F2F2F2F2F2F2F2F2F2F2F2F2F2F2F2F2F2F2F2F2F2F2F
310
2F2F2F2FF52F2FF57474EFF52F2F2F2FF52F2F2F2F2F2F2F2F2F2F2F2F2F2F2F2F2F2F2F2F2F2F2F2F2F2F2F2F2F2F2F2F2F2F2F2F2F2F2F2F2F2F2F2F2F2F2F2F2F2F2F2F2F2F2F2F2F2F2F2F2F2F2F2F2F2F2F2F2F2F2F2F2F2F2F2F2F2F2F2F2F2F2F2F2F2F2FF52F2F2F6963EFF52F2F2F2FF52F2F2F2F2F2F2F2F2F2F
310
2F2F2F2F2F2F2F2F2F2F2F2F2F2F2F2F2F2F2F2F2F2F2F2F2F2F2F2F2F2F2F2F2F2F2F2F2F2F2F2F2F2F2F2F2F2F2F2F2F2F2F2F2F2F2F2F2F2F2F2F2F2F2F2F2F2F2F2F2F2F2F2F2F2F2F2F2FF52F2F2F2D64EFF52F2F2F2FF52F2F2F2F2F2F2F2F2F2F2F2F2F2F2F2F2F2F2F2F2F2F2F2F2F2F2F2F2F2F2F2F2F2F2F2F2F
310
2F2F2F2F2F2F2F2F2F2F2F2F2F2F2F2F2F2F2F2F2F2F2F2F2F2F2F2F2F2F2F2F2F2F2F2F2F2F2F2F2F2F2F2F2F2F2F2F2F2FF52F2F2F0A3BEFF52F2F2F2FF52F2F2F2F2F2F2F2F2F2F2F2F2F2F2F2F2F2F2F2F2F2F2F2F2F2F2F2F2F2F2F2F2F2F2F2F2F2F2F2F2F2F2F2F2F2F2F2F2F2F2F2F2F2F2F2F2F2F2F2F2F2F2F2F
310
2F2F2F2F2F2F2F2F2F2F2F2F2F2F2F2F2F2F2F2F2F2F2FF52F2F2F2A4DEFF52F2F2F2FF52F2F2F2F2F2F2F2F2F2F2F2F2F2F2F2F2F2F2F2F2F2F2F2F2F2F2F2F2F2F2F2F2F2F2F2F2F2F2F2F2F2F2F2F2F2F2F2F2F2F2F2F2F2F2F2F2F2F2F2F2F2F2F2F2F2F2F2F2F2F2F2F2F2F2F2F2F2F2F2F2F2F2F2F2F2F2FF52F2F2F
310
2C30EFF52F2F2F2FF52F2F2F2F2F2F2F2F2F2F2F2F2F2F2F2F2F2F2F2F2F2F2F2F2F2F2F2F2F2F2F2F2F2F2F2F2F2F2F2F2F2F2F2F2F2F2F2F2F2F2F2F2F2F2F2F2F2F2F2F2F2F2F2F2F2F2F2F2F2F2F2F2F2F2F2F2F2F2F2F2F2F2F2F2F2F2FF52F2F2F302CEFF52F2F2F2FF52F2F2F2F2F2F2F2F2F2F2F2F2F2F2F2F2F2F
310
2F2F2F2F2F2F2F2F2F2F2F2F2F2F2F2F2F2F2F2F2F2F2F2F2F2F2F2F2F2F2F2F2F2F2F2F2F2F2F2F2F2F2F2F2F2F2F2F2F2F2F2F2F2F2F2F2F2F2F2F2F2F2F2F2F2F2F2F2FF52F2F2F2C20EFF52F2F2F2FF52F2F2F2F2F2F2F2F2F2F2F2F2F2F2F2F2F2F2F2F2F2F2F2F2F2F2F2F2F2F2F2F2F2F2F2F2F2F2F2F2F2F2F2F2F
310
2F2F2F2F2F2F2F2F2F2F2F2F2F2F2F2F2F2F2F2F2F2F2F2F2F2F2F2F2F2F2F2F2F2F2F2F2F2F2F2F2F2FF52F2F2F522CEFF52F2F2F2FF52F2F2F2F2F2F2F2F2F2F2F2F2F2F2F2F2F2F2F2F2F2F2F2F2F2F2F2F2F2F2F2F2F2F2F2F2F2F2F2F2F2F2F2F2F2F2F2F2F2F2F2F2F2F2F2F2F2F2F2F2F2F2F2F2F2F2F2F2F2F2F2F
310
2F2F2F2F2F2F2F2F2F2F2F2F2F2F2FF52F2F2F0D0AEFF52F2F2F2FF52F2F2F2F2F2F2F2F2F2F2F2F2F2F2F2F2F2F2F2F2F2F2F2F2F2F2F2F2F2F2F2F2F2F2F2F2F2F2F2F2F2F2F2F2F2F2F2F2F2F2F2F2F2F2F2F2F2F2F2F2F2F2F2F2F2F2F2F2F2F2F2F2F2F2F2F2F2F2F2F2F2F2F2F2F2F2FF52F2F2F3531EFF5F52F2F2F
310
F52F2F2F2F2F2F2F2F2F2F2F2F2F2F2F2F2F2F2F2F2F2F2F2F2F2F2F2F2F2F2F2F2F2F2F2F2F2F2F2F2F2F2F2F2F2F2F2F2F2F2F2F2F2F2F2F2F2F2F2F2F2F2F2F2F2F2F2F2F2F2F2F2F2F2F2F2F2F2F2F2F2F2F2F2F2F2FF52F2FF52A53EFF5F52F2F2FF52F2F2F2F2F2F2F2F2F2F2F2F2F2F2F2F2F2F2F2F2F2F2F2F2F2F
310
2F2F2F2F2F2F2F2F2F2F2F2F2F2F2F2F2F2F2F2F2F2F2F2F2F2F2F2F2F2F2F2F2F2F2F2F2F2F2F2F2F2F2F2F2F2F2F2F2F2F2F2F2F2F2F2F2F2F2F2F2FF52F2FF53534EFF5F52F2F2FF52F2F2F2F2F2F2F2F2F2F2F2F2F2F2F2F2F2F2F2F2F2F2F2F2F2F2F2F2F2F2F2F2F2F2F2F2F2F2F2F2F2F2F2F2F2F2F2F2F2F2F2F2F
310
2F2F2F2F2F2F2F2F2F2F2F2F2F2F2F2F2F2F2F2F2F2F2F2F2F2F2F2F2F2F2F2F2F2FF52F2FF52D31EFF5F52F2F2FF52F2F2F2F2F2F2F2F2F2F2F2F2F2F2F2F2F2F2F2F2F2F2F2F2F2F2F2F2F2F2F2F2F2F2F2F2F2F2F2F2F2F2F2F2F2F2F2F2F2F2F2F2F2F2F2F2F2F2F2F2F2F2F2F2F2F2F2F2F2F2F2F2F2F2F2F2F2F2F2F
310
2F2F2F2F2F2F2FF52F2FF50A31EFF5F52F2F2FF5F5F5F5F5F5F5F5F5F5F5F5F5F5F5F5F5F5F5F5F5F5F5F5F5F5F5F5F5F5F5F5F5F5F5F5F5F5F5F5F5F5F5F5F5F5F5F5F5F5F5F5F5F5F5F5F5F5F5F5F5F5F5F5F5F5F5F5F5F5F5F5F5F5F5F5F5F5F5F5F5F5F5F5F5F5F5F5F52F2FF52C2EEFF5F52F2F2F2F2F2F2F2F2F2F2F
310
2F2F2F2F2F2F2F2F2F2F2F2F2F2F2F2F2F2F2F2F2F2F2F2F2F2F2F2F2F2F2F2F2F2F2F2F2F2F2F2F2F2F2F2F2F2F2F2F2F2F2F2F2F2F2F2F2F2F2F2F2F2F2F2F2F2F2F2F2F2F2F2F2F2F2F2F2F2F2F2F2F2F2FF5202EEFF5F52F2F2F2F2F2F2F2F2F2F2F2F2F2F2F2F2F2F2F2F2F2F2F2F2F2F2F2F2F2F2F2F2F2F2F2F2F2F
310
2F2F2F2F2F2F2F2F2F2F2F2F2F2F2F2F2F2F2F2F2F2F2F2F2F2F2F2F2F2F2F2F2F2F2F2F2F2F2F2F2F2F2F2F2F2F2F2F2F2F2F2F2F2F2F2FF56972EFF5F52F2F2F2F2F2F2F2F2F2F2F2F2F2F2F2F2F2F2F2F2F2F2F2F2F2F2F2F2F2F2F2F2F2F2F2F2F2F2F2F2F2F2F2F2F2F2F2F2F2F2F2F2F2F2F2F2F2F2F2F2F2F2F2F2F
310
2F2F2F2F2F2F2F2F2F2F2F2F2F2F2F2F2F2F2F2F2F2F2F2F2F2F2F2F2FF56669EFF5F5F5F5F5F5F5F5F52F2F2F2F2F2F2F2F2FF5F5F5F5F5F5F5F5F5F5F5F5F5F5F52F2F2F2F2F2F2F2FF5F5F5F5F5F5F5F5F5F5F5F5F5F5F5F52F2F2F2F2F2F2F2FF5F5F5F5F5F5F5F5F5F5F5F5F5F5F52F2F2F2F2F2F2F2F2FF5F5F5F5F5
310
F5F5F52065EFF52F2F2F2F2F2F2F2F2F2F2F2F2F2F2F2F2F2F2F2F2F2F2F2F2F2F2F2F2F2F2F2F2F2F2F2F2F2F2F2F2F2F2F2F2F2F2F2F2F2F2F2F2F2F2F2F2F2F2F2F2F2F2F2F2F2F2F2F2F2F2F2F2F2F2F2F2F2F2F2F2F2F2F2F2F2F2F2F2F2F2F2F2F2F2F2F7463EFF5F5F5F5F5F5F5F5F5F5F5F5F5F5F5F5F5F5F5F5F5
310
F5F5F5F5F5F5F5F5F5F5F5F5F5F5F5F5F5F5F5F5F5F5F5F5F5F5F5F5F5F5F5F5F5F5F5F5F5F5F5F5F5F5F5F5F5F5F5F5F5F5F5F5F5F5F5F5F5F5F5F5F5F5F5F5F5F5F5F5F5F5F5F5F5F5F5F52070
  0
XRECORD
  5
161D
102
{ACAD_REACTORS
330
1041
102
}
330
1041
100
AcDbXrecord
280
     1
102
MATERIAL
148
0.0
149
0.0
149
0.0
 93
        0
 94
      127
282
     0
 72
     0
 77
     0
171
     0
175
     0
179
     0
273
     0
  0
XRECORD
  5
1043
102
{ACAD_REACTORS
330
1041
102
}
330
1041
100
AcDbXrecord
280
     1
270
     1
271
     1
  0
XRECORD
  5
1042
102
{ACAD_REACTORS
330
1041
102
}
330
1041
100
AcDbXrecord
280
     1
270
     1
271
     1
  0
XRECORD
  5
1046
102
{ACAD_REACTORS
330
1041
102
}
330
1041
100
AcDbXrecord
280
     1
270
     1
271
     1
  0
XRECORD
  5
1045
102
{ACAD_REACTORS
330
1041
102
}
330
1041
100
AcDbXrecord
280
     1
270
     1
271
     1
  0
XRECORD
  5
1047
102
{ACAD_REACTORS
330
1041
102
}
330
1041
100
AcDbXrecord
280
     1
270
     1
271
     1
  0
XRECORD
  5
1044
102
{ACAD_REACTORS
330
1041
102
}
330
1041
100
AcDbXrecord
280
     1
270
     1
271
     1
  0
XRECORD
  5
161C
102
{ACAD_REACTORS
330
1039
102
}
330
1039
100
AcDbXrecord
280
     1
102
MATERIAL
148
0.0
149
0.0
149
0.0
 93
        0
 94
      127
282
     0
 72
     0
 77
     0
171
     0
175
     0
179
     0
273
     0
  0
XRECORD
  5
103B
102
{ACAD_REACTORS
330
1039
102
}
330
1039
100
AcDbXrecord
280
     1
270
     1
271
     1
  0
XRECORD
  5
103A
102
{ACAD_REACTORS
330
1039
102
}
330
1039
100
AcDbXrecord
280
     1
270
     1
271
     1
  0
XRECORD
  5
103E
102
{ACAD_REACTORS
330
1039
102
}
330
1039
100
AcDbXrecord
280
     1
270
     1
271
     1
  0
XRECORD
  5
103D
102
{ACAD_REACTORS
330
1039
102
}
330
1039
100
AcDbXrecord
280
     1
270
     1
271
     1
  0
XRECORD
  5
103F
102
{ACAD_REACTORS
330
1039
102
}
330
1039
100
AcDbXrecord
280
     1
270
     1
271
     1
  0
XRECORD
  5
103C
102
{ACAD_REACTORS
330
1039
102
}
330
1039
100
AcDbXrecord
280
     1
270
     1
271
     1
  0
XRECORD
  5
161E
102
{ACAD_REACTORS
330
1049
102
}
330
1049
100
AcDbXrecord
280
     1
102
MATERIAL
148
0.0
149
0.0
149
0.0
 93
        0
 94
      127
282
     0
 72
     0
 77
     0
171
     0
175
     0
179
     0
273
     0
  0
XRECORD
  5
104B
102
{ACAD_REACTORS
330
1049
102
}
330
1049
100
AcDbXrecord
280
     1
270
     1
271
     1
  0
XRECORD
  5
104A
102
{ACAD_REACTORS
330
1049
102
}
330
1049
100
AcDbXrecord
280
     1
270
     1
271
     1
  0
XRECORD
  5
104E
102
{ACAD_REACTORS
330
1049
102
}
330
1049
100
AcDbXrecord
280
     1
270
     1
271
     1
  0
XRECORD
  5
104D
102
{ACAD_REACTORS
330
1049
102
}
330
1049
100
AcDbXrecord
280
     1
270
     1
271
     1
  0
XRECORD
  5
104F
102
{ACAD_REACTORS
330
1049
102
}
330
1049
100
AcDbXrecord
280
     1
270
     1
271
     1
  0
XRECORD
  5
104C
102
{ACAD_REACTORS
330
1049
102
}
330
1049
100
AcDbXrecord
280
     1
270
     1
271
     1
  0
CELLSTYLEMAP
  5
1611
102
{ACAD_REACTORS
330
1246
102
}
330
1246
100
AcDbCellStyleMap
 90
        3
300
CELLSTYLE
  1
TABLEFORMAT_BEGIN
 90
        5
170
     1
 91
        0
 92
    32768
 62
   257
 93
        1
300
CONTENTFORMAT
  1
CONTENTFORMAT_BEGIN
 90
        0
 91
        0
 92
      512
 93
        0
300

 40
0.0
140
1.0
 94
        5
 62
     0
340
69F
144
0.25
309
CONTENTFORMAT_END
171
     0
 94
        0
309
TABLEFORMAT_END
  1
CELLSTYLE_BEGIN
 90
        1
 91
        1
300
_TITLE
309
CELLSTYLE_END
300
CELLSTYLE
  1
TABLEFORMAT_BEGIN
 90
        5
170
     1
 91
        0
 92
        0
 62
   257
 93
        1
300
CONTENTFORMAT
  1
CONTENTFORMAT_BEGIN
 90
        0
 91
        0
 92
      512
 93
        0
300

 40
0.0
140
1.0
 94
        5
 62
     0
340
69F
144
0.18
309
CONTENTFORMAT_END
171
     0
 94
        0
309
TABLEFORMAT_END
  1
CELLSTYLE_BEGIN
 90
        2
 91
        1
300
_HEADER
309
CELLSTYLE_END
300
CELLSTYLE
  1
TABLEFORMAT_BEGIN
 90
        5
170
     1
 91
        0
 92
        0
 62
   257
 93
        1
300
CONTENTFORMAT
  1
CONTENTFORMAT_BEGIN
 90
        0
 91
        0
 92
      512
 93
        0
300

 40
0.0
140
1.0
 94
        2
 62
     0
340
69F
144
0.18
309
CONTENTFORMAT_END
171
     0
 94
        0
309
TABLEFORMAT_END
  1
CELLSTYLE_BEGIN
 90
        3
 91
        2
300
_DATA
309
CELLSTYLE_END
  0
XRECORD
  5
163F
102
{ACAD_REACTORS
330
1246
102
}
330
1246
100
AcDbXrecord
280
     1
102
ACAD_ROUNDTRIP_PRE2007_TABLESTYLE
 90
      512
 91
        0
  1

 92
      512
 93
        0
  2

 94
      512
 95
        0
  3

  0
XRECORD
  5
162A
102
{ACAD_REACTORS
330
1629
102
}
330
1629
100
AcDbXrecord
280
     1
102
RTVSPost2010Prop28
280
     1
102
RTVSPost2010PropOp28
 70
     1
102
RTVSPost2010Prop29
280
     1
102
RTVSPost2010PropOp29
 70
     1
102
RTVSPost2010Prop30
280
     0
102
RTVSPost2010PropOp30
 70
     1
102
RTVSPost2010Prop31
280
     0
102
RTVSPost2010PropOp31
 70
     1
102
RTVSPost2010Prop32
280
     0
102
RTVSPost2010PropOp32
 70
     1
102
RTVSPost2010Prop33
280
     0
102
RTVSPost2010PropOp33
 70
     1
102
RTVSPost2010Prop34
280
     0
102
RTVSPost2010PropOp34
 70
     1
102
RTVSPost2010Prop35
280
     0
102
RTVSPost2010PropOp35
 70
     1
102
RTVSPost2010Prop36
280
     0
102
RTVSPost2010PropOp36
 70
     1
102
RTVSPost2010Prop37
 90
       50
102
RTVSPost2010PropOp37
 70
     1
102
RTVSPost2010Prop38
140
0.0
102
RTVSPost2010PropOp38
 70
     1
102
RTVSPost2010Prop39
140
1.0
102
RTVSPost2010PropOp39
 70
     1
102
RTVSPost2010Prop40
 90
        0
102
RTVSPost2010PropOp40
 70
     1
102
RTVSPost2010Prop41ColorIndex
 90
       18
102
RTVSPost2010Prop41ColorRGB
 90
        0
102
RTVSPost2010PropOp41
 70
     1
102
RTVSPost2010Prop42
 90
       50
102
RTVSPost2010PropOp42
 70
     1
102
RTVSPost2010Prop43
 90
        3
102
RTVSPost2010PropOp43
 70
     1
102
RTVSPost2010Prop44ColorIndex
 90
        5
102
RTVSPost2010Prop44ColorRGB
 90
      255
102
RTVSPost2010PropOp44
 70
     1
102
RTVSPost2010Prop45
280
     0
102
RTVSPost2010PropOp45
 70
     1
102
RTVSPost2010Prop46
 90
       50
102
RTVSPost2010PropOp46
 70
     1
102
RTVSPost2010Prop47
 90
       50
102
RTVSPost2010PropOp47
 70
     1
102
RTVSPost2010Prop48
 90
       50
102
RTVSPost2010PropOp48
 70
     1
102
RTVSPost2010Prop49
280
     0
102
RTVSPost2010PropOp49
 70
     1
102
RTVSPost2010Prop50
 90
       50
102
RTVSPost2010PropOp50
 70
     1
102
RTVSPost2010Prop51ColorIndex
 90
      256
102
RTVSPost2010Prop51ColorRGB
 90
-16777216
102
RTVSPost2010PropOp51
 70
     0
102
RTVSPost2010Prop52
140
1.0
102
RTVSPost2010PropOp52
 70
     0
102
RTVSPost2010Prop53
 90
        2
102
RTVSPost2010PropOp53
 70
     1
102
RTVSPost2010Prop54
  1
strokes_ogs.tif
102
RTVSPost2010PropOp54
 70
     1
102
RTVSPost2010Prop55
280
     0
102
RTVSPost2010PropOp55
 70
     1
102
RTVSPost2010Prop56
140
1.0
102
RTVSPost2010PropOp56
 70
     1
102
RTVSPost2010Prop57
140
1.0
102
RTVSPost2010PropOp57
 70
     1
102
RTVSPropertyOp0
 70
     1
102
RTVSPropertyOp1
 70
     1
102
RTVSPropertyOp2
 70
     1
102
RTVSPropertyOp3
 70
     1
102
RTVSPropertyOp4
 70
     1
102
RTVSPropertyOp5
 70
     1
102
RTVSPropertyOp6
 70
     1
102
RTVSPropertyOp7
 70
     1
102
RTVSPropertyOp8
 70
     1
102
RTVSPropertyOp9
 70
     1
102
RTVSPropertyOp10
 70
     1
102
RTVSPropertyOp11
 70
     1
102
RTVSPropertyOp12
 70
     1
102
RTVSPropertyOp13
 70
     1
102
RTVSPropertyOp14
 70
     1
102
RTVSPropertyOp15
 70
     1
102
RTVSPropertyOp16
 70
     1
102
RTVSPropertyOp17
 70
     1
102
RTVSPropertyOp18
 70
     1
102
RTVSPropertyOp19
 70
     1
102
RTVSPropertyOp20
 70
     1
102
RTVSPropertyOp21
 70
     1
102
RTVSPropertyOp22
 70
     1
102
RTVSPropertyOp23
 70
     1
102
RTVSPropertyOp24
 70
     1
102
RTVSPropertyOp25
 70
     1
102
RTVSPropertyOp26
 70
     1
102
RTVSPropertyOp27
 70
     1
102
RTVSPropertyOp28
 70
     1
102
RTVSPropertyOp29
 70
     1
102
RTVSPropertyOp30
 70
     1
102
RTVSPropertyOp31
 70
     1
102
RTVSPropertyOp32
 70
     1
102
RTVSPropertyOp33
 70
     1
102
RTVSPropertyOp34
 70
     1
102
RTVSPropertyOp35
 70
     1
102
RTVSPropertyOp36
 70
     1
102
RTVSPropertyOp37
 70
     1
102
RTVSPropertyOp38
 70
     1
102
RTVSPropertyOp39
 70
     1
102
RTVSPropertyOp40
 70
     1
102
RTVSPropertyOp41
 70
     1
102
RTVSPropertyOp42
 70
     1
102
RTVSPropertyOp43
 70
     1
102
RTVSPropertyOp44
 70
     1
102
RTVSPropertyOp45
 70
     1
102
RTVSPropertyOp46
 70
     1
102
RTVSPropertyOp47
 70
     1
102
RTVSPropertyOp48
 70
     1
102
RTVSPropertyOp49
 70
     1
102
RTVSPropertyOp50
 70
     1
102
RTVSPropertyOp51
 70
     0
102
RTVSPropertyOp52
 70
     0
102
RTVSPropertyOp53
 70
     1
102
RTVSPropertyOp54
 70
     1
102
RTVSPropertyOp55
 70
     1
102
RTVSPropertyOp56
 70
     1
102
RTVSPropertyOp57
 70
     1
102
RTVSPropertyOp58
 70
     1
102
RTVSPropertyOp59
 70
     1
102
RTVSPropertyOp60
 70
     1
102
RTVSPropertyOp61
 70
     1
102
RTVSPropertyOp62
 70
     1
  0
XRECORD
  5
162E
102
{ACAD_REACTORS
330
162D
102
}
330
162D
100
AcDbXrecord
280
     1
102
RTVSPost2010Prop28
280
     0
102
RTVSPost2010PropOp28
 70
     1
102
RTVSPost2010Prop29
280
     1
102
RTVSPost2010PropOp29
 70
     1
102
RTVSPost2010Prop30
280
     1
102
RTVSPost2010PropOp30
 70
     1
102
RTVSPost2010Prop31
280
     0
102
RTVSPost2010PropOp31
 70
     1
102
RTVSPost2010Prop32
280
     0
102
RTVSPost2010PropOp32
 70
     1
102
RTVSPost2010Prop33
280
     0
102
RTVSPost2010PropOp33
 70
     1
102
RTVSPost2010Prop34
280
     0
102
RTVSPost2010PropOp34
 70
     1
102
RTVSPost2010Prop35
280
     0
102
RTVSPost2010PropOp35
 70
     1
102
RTVSPost2010Prop36
280
     0
102
RTVSPost2010PropOp36
 70
     1
102
RTVSPost2010Prop37
 90
       50
102
RTVSPost2010PropOp37
 70
     1
102
RTVSPost2010Prop38
140
0.0
102
RTVSPost2010PropOp38
 70
     1
102
RTVSPost2010Prop39
140
1.0
102
RTVSPost2010PropOp39
 70
     1
102
RTVSPost2010Prop40
 90
        0
102
RTVSPost2010PropOp40
 70
     1
102
RTVSPost2010Prop41ColorIndex
 90
       18
102
RTVSPost2010Prop41ColorRGB
 90
        0
102
RTVSPost2010PropOp41
 70
     1
102
RTVSPost2010Prop42
 90
       50
102
RTVSPost2010PropOp42
 70
     1
102
RTVSPost2010Prop43
 90
        3
102
RTVSPost2010PropOp43
 70
     1
102
RTVSPost2010Prop44ColorIndex
 90
        5
102
RTVSPost2010Prop44ColorRGB
 90
      255
102
RTVSPost2010PropOp44
 70
     1
102
RTVSPost2010Prop45
280
     0
102
RTVSPost2010PropOp45
 70
     1
102
RTVSPost2010Prop46
 90
       50
102
RTVSPost2010PropOp46
 70
     1
102
RTVSPost2010Prop47
 90
       50
102
RTVSPost2010PropOp47
 70
     1
102
RTVSPost2010Prop48
 90
       50
102
RTVSPost2010PropOp48
 70
     1
102
RTVSPost2010Prop49
280
     0
102
RTVSPost2010PropOp49
 70
     1
102
RTVSPost2010Prop50
 90
       50
102
RTVSPost2010PropOp50
 70
     1
102
RTVSPost2010Prop51ColorIndex
 90
      256
102
RTVSPost2010Prop51ColorRGB
 90
-16777216
102
RTVSPost2010PropOp51
 70
     0
102
RTVSPost2010Prop52
140
1.0
102
RTVSPost2010PropOp52
 70
     0
102
RTVSPost2010Prop53
 90
        2
102
RTVSPost2010PropOp53
 70
     1
102
RTVSPost2010Prop54
  1
strokes_ogs.tif
102
RTVSPost2010PropOp54
 70
     1
102
RTVSPost2010Prop55
280
     0
102
RTVSPost2010PropOp55
 70
     1
102
RTVSPost2010Prop56
140
1.0
102
RTVSPost2010PropOp56
 70
     1
102
RTVSPost2010Prop57
140
1.0
102
RTVSPost2010PropOp57
 70
     1
102
RTVSPropertyOp0
 70
     1
102
RTVSPropertyOp1
 70
     1
102
RTVSPropertyOp2
 70
     1
102
RTVSPropertyOp3
 70
     1
102
RTVSPropertyOp4
 70
     1
102
RTVSPropertyOp5
 70
     1
102
RTVSPropertyOp6
 70
     1
102
RTVSPropertyOp7
 70
     1
102
RTVSPropertyOp8
 70
     1
102
RTVSPropertyOp9
 70
     1
102
RTVSPropertyOp10
 70
     1
102
RTVSPropertyOp11
 70
     1
102
RTVSPropertyOp12
 70
     1
102
RTVSPropertyOp13
 70
     1
102
RTVSPropertyOp14
 70
     1
102
RTVSPropertyOp15
 70
     1
102
RTVSPropertyOp16
 70
     1
102
RTVSPropertyOp17
 70
     1
102
RTVSPropertyOp18
 70
     1
102
RTVSPropertyOp19
 70
     1
102
RTVSPropertyOp20
 70
     1
102
RTVSPropertyOp21
 70
     1
102
RTVSPropertyOp22
 70
     1
102
RTVSPropertyOp23
 70
     1
102
RTVSPropertyOp24
 70
     1
102
RTVSPropertyOp25
 70
     1
102
RTVSPropertyOp26
 70
     1
102
RTVSPropertyOp27
 70
     1
102
RTVSPropertyOp28
 70
     1
102
RTVSPropertyOp29
 70
     1
102
RTVSPropertyOp30
 70
     1
102
RTVSPropertyOp31
 70
     1
102
RTVSPropertyOp32
 70
     1
102
RTVSPropertyOp33
 70
     1
102
RTVSPropertyOp34
 70
     1
102
RTVSPropertyOp35
 70
     1
102
RTVSPropertyOp36
 70
     1
102
RTVSPropertyOp37
 70
     1
102
RTVSPropertyOp38
 70
     1
102
RTVSPropertyOp39
 70
     1
102
RTVSPropertyOp40
 70
     1
102
RTVSPropertyOp41
 70
     1
102
RTVSPropertyOp42
 70
     1
102
RTVSPropertyOp43
 70
     1
102
RTVSPropertyOp44
 70
     1
102
RTVSPropertyOp45
 70
     1
102
RTVSPropertyOp46
 70
     1
102
RTVSPropertyOp47
 70
     1
102
RTVSPropertyOp48
 70
     1
102
RTVSPropertyOp49
 70
     1
102
RTVSPropertyOp50
 70
     1
102
RTVSPropertyOp51
 70
     0
102
RTVSPropertyOp52
 70
     0
102
RTVSPropertyOp53
 70
     1
102
RTVSPropertyOp54
 70
     1
102
RTVSPropertyOp55
 70
     1
102
RTVSPropertyOp56
 70
     1
102
RTVSPropertyOp57
 70
     1
102
RTVSPropertyOp58
 70
     1
102
RTVSPropertyOp59
 70
     1
102
RTVSPropertyOp60
 70
     1
102
RTVSPropertyOp61
 70
     1
102
RTVSPropertyOp62
 70
     1
  0
XRECORD
  5
162C
102
{ACAD_REACTORS
330
162B
102
}
330
162B
100
AcDbXrecord
280
     1
102
RTVSPost2010Prop28
280
     0
102
RTVSPost2010PropOp28
 70
     1
102
RTVSPost2010Prop29
280
     1
102
RTVSPost2010PropOp29
 70
     1
102
RTVSPost2010Prop30
280
     1
102
RTVSPost2010PropOp30
 70
     1
102
RTVSPost2010Prop31
280
     0
102
RTVSPost2010PropOp31
 70
     1
102
RTVSPost2010Prop32
280
     0
102
RTVSPost2010PropOp32
 70
     1
102
RTVSPost2010Prop33
280
     0
102
RTVSPost2010PropOp33
 70
     1
102
RTVSPost2010Prop34
280
     0
102
RTVSPost2010PropOp34
 70
     1
102
RTVSPost2010Prop35
280
     0
102
RTVSPost2010PropOp35
 70
     1
102
RTVSPost2010Prop36
280
     0
102
RTVSPost2010PropOp36
 70
     1
102
RTVSPost2010Prop37
 90
       50
102
RTVSPost2010PropOp37
 70
     1
102
RTVSPost2010Prop38
140
0.0
102
RTVSPost2010PropOp38
 70
     1
102
RTVSPost2010Prop39
140
1.0
102
RTVSPost2010PropOp39
 70
     1
102
RTVSPost2010Prop40
 90
        0
102
RTVSPost2010PropOp40
 70
     1
102
RTVSPost2010Prop41ColorIndex
 90
       18
102
RTVSPost2010Prop41ColorRGB
 90
        0
102
RTVSPost2010PropOp41
 70
     1
102
RTVSPost2010Prop42
 90
       50
102
RTVSPost2010PropOp42
 70
     1
102
RTVSPost2010Prop43
 90
        3
102
RTVSPost2010PropOp43
 70
     1
102
RTVSPost2010Prop44ColorIndex
 90
        5
102
RTVSPost2010Prop44ColorRGB
 90
      255
102
RTVSPost2010PropOp44
 70
     1
102
RTVSPost2010Prop45
280
     0
102
RTVSPost2010PropOp45
 70
     1
102
RTVSPost2010Prop46
 90
       50
102
RTVSPost2010PropOp46
 70
     1
102
RTVSPost2010Prop47
 90
       50
102
RTVSPost2010PropOp47
 70
     1
102
RTVSPost2010Prop48
 90
       50
102
RTVSPost2010PropOp48
 70
     1
102
RTVSPost2010Prop49
280
     0
102
RTVSPost2010PropOp49
 70
     1
102
RTVSPost2010Prop50
 90
       50
102
RTVSPost2010PropOp50
 70
     1
102
RTVSPost2010Prop51ColorIndex
 90
      256
102
RTVSPost2010Prop51ColorRGB
 90
-16777216
102
RTVSPost2010PropOp51
 70
     0
102
RTVSPost2010Prop52
140
1.0
102
RTVSPost2010PropOp52
 70
     0
102
RTVSPost2010Prop53
 90
        2
102
RTVSPost2010PropOp53
 70
     1
102
RTVSPost2010Prop54
  1
strokes_ogs.tif
102
RTVSPost2010PropOp54
 70
     1
102
RTVSPost2010Prop55
280
     0
102
RTVSPost2010PropOp55
 70
     1
102
RTVSPost2010Prop56
140
1.0
102
RTVSPost2010PropOp56
 70
     1
102
RTVSPost2010Prop57
140
1.0
102
RTVSPost2010PropOp57
 70
     1
102
RTVSPropertyOp0
 70
     1
102
RTVSPropertyOp1
 70
     1
102
RTVSPropertyOp2
 70
     1
102
RTVSPropertyOp3
 70
     1
102
RTVSPropertyOp4
 70
     1
102
RTVSPropertyOp5
 70
     1
102
RTVSPropertyOp6
 70
     1
102
RTVSPropertyOp7
 70
     1
102
RTVSPropertyOp8
 70
     1
102
RTVSPropertyOp9
 70
     1
102
RTVSPropertyOp10
 70
     1
102
RTVSPropertyOp11
 70
     1
102
RTVSPropertyOp12
 70
     1
102
RTVSPropertyOp13
 70
     1
102
RTVSPropertyOp14
 70
     1
102
RTVSPropertyOp15
 70
     1
102
RTVSPropertyOp16
 70
     1
102
RTVSPropertyOp17
 70
     1
102
RTVSPropertyOp18
 70
     1
102
RTVSPropertyOp19
 70
     1
102
RTVSPropertyOp20
 70
     1
102
RTVSPropertyOp21
 70
     1
102
RTVSPropertyOp22
 70
     1
102
RTVSPropertyOp23
 70
     1
102
RTVSPropertyOp24
 70
     1
102
RTVSPropertyOp25
 70
     1
102
RTVSPropertyOp26
 70
     1
102
RTVSPropertyOp27
 70
     1
102
RTVSPropertyOp28
 70
     1
102
RTVSPropertyOp29
 70
     1
102
RTVSPropertyOp30
 70
     1
102
RTVSPropertyOp31
 70
     1
102
RTVSPropertyOp32
 70
     1
102
RTVSPropertyOp33
 70
     1
102
RTVSPropertyOp34
 70
     1
102
RTVSPropertyOp35
 70
     1
102
RTVSPropertyOp36
 70
     1
102
RTVSPropertyOp37
 70
     1
102
RTVSPropertyOp38
 70
     1
102
RTVSPropertyOp39
 70
     1
102
RTVSPropertyOp40
 70
     1
102
RTVSPropertyOp41
 70
     1
102
RTVSPropertyOp42
 70
     1
102
RTVSPropertyOp43
 70
     1
102
RTVSPropertyOp44
 70
     1
102
RTVSPropertyOp45
 70
     1
102
RTVSPropertyOp46
 70
     1
102
RTVSPropertyOp47
 70
     1
102
RTVSPropertyOp48
 70
     1
102
RTVSPropertyOp49
 70
     1
102
RTVSPropertyOp50
 70
     1
102
RTVSPropertyOp51
 70
     0
102
RTVSPropertyOp52
 70
     0
102
RTVSPropertyOp53
 70
     1
102
RTVSPropertyOp54
 70
     1
102
RTVSPropertyOp55
 70
     1
102
RTVSPropertyOp56
 70
     1
102
RTVSPropertyOp57
 70
     1
102
RTVSPropertyOp58
 70
     1
102
RTVSPropertyOp59
 70
     1
102
RTVSPropertyOp60
 70
     1
102
RTVSPropertyOp61
 70
     1
102
RTVSPropertyOp62
 70
     1
  0
XRECORD
  5
1628
102
{ACAD_REACTORS
330
1627
102
}
330
1627
100
AcDbXrecord
280
     1
102
RTVSPost2010Prop28
280
     0
102
RTVSPost2010PropOp28
 70
     1
102
RTVSPost2010Prop29
280
     1
102
RTVSPost2010PropOp29
 70
     1
102
RTVSPost2010Prop30
280
     1
102
RTVSPost2010PropOp30
 70
     1
102
RTVSPost2010Prop31
280
     0
102
RTVSPost2010PropOp31
 70
     1
102
RTVSPost2010Prop32
280
     0
102
RTVSPost2010PropOp32
 70
     1
102
RTVSPost2010Prop33
280
     0
102
RTVSPost2010PropOp33
 70
     1
102
RTVSPost2010Prop34
280
     0
102
RTVSPost2010PropOp34
 70
     1
102
RTVSPost2010Prop35
280
     0
102
RTVSPost2010PropOp35
 70
     1
102
RTVSPost2010Prop36
280
     0
102
RTVSPost2010PropOp36
 70
     1
102
RTVSPost2010Prop37
 90
       50
102
RTVSPost2010PropOp37
 70
     1
102
RTVSPost2010Prop38
140
0.0
102
RTVSPost2010PropOp38
 70
     1
102
RTVSPost2010Prop39
140
1.0
102
RTVSPost2010PropOp39
 70
     1
102
RTVSPost2010Prop40
 90
        0
102
RTVSPost2010PropOp40
 70
     1
102
RTVSPost2010Prop41ColorIndex
 90
       18
102
RTVSPost2010Prop41ColorRGB
 90
        0
102
RTVSPost2010PropOp41
 70
     1
102
RTVSPost2010Prop42
 90
       50
102
RTVSPost2010PropOp42
 70
     1
102
RTVSPost2010Prop43
 90
        3
102
RTVSPost2010PropOp43
 70
     1
102
RTVSPost2010Prop44ColorIndex
 90
        5
102
RTVSPost2010Prop44ColorRGB
 90
      255
102
RTVSPost2010PropOp44
 70
     1
102
RTVSPost2010Prop45
280
     0
102
RTVSPost2010PropOp45
 70
     1
102
RTVSPost2010Prop46
 90
       50
102
RTVSPost2010PropOp46
 70
     1
102
RTVSPost2010Prop47
 90
       50
102
RTVSPost2010PropOp47
 70
     1
102
RTVSPost2010Prop48
 90
       50
102
RTVSPost2010PropOp48
 70
     1
102
RTVSPost2010Prop49
280
     0
102
RTVSPost2010PropOp49
 70
     1
102
RTVSPost2010Prop50
 90
       50
102
RTVSPost2010PropOp50
 70
     1
102
RTVSPost2010Prop51ColorIndex
 90
      256
102
RTVSPost2010Prop51ColorRGB
 90
-16777216
102
RTVSPost2010PropOp51
 70
     0
102
RTVSPost2010Prop52
140
1.0
102
RTVSPost2010PropOp52
 70
     0
102
RTVSPost2010Prop53
 90
        2
102
RTVSPost2010PropOp53
 70
     1
102
RTVSPost2010Prop54
  1
strokes_ogs.tif
102
RTVSPost2010PropOp54
 70
     1
102
RTVSPost2010Prop55
280
     0
102
RTVSPost2010PropOp55
 70
     1
102
RTVSPost2010Prop56
140
1.0
102
RTVSPost2010PropOp56
 70
     1
102
RTVSPost2010Prop57
140
1.0
102
RTVSPost2010PropOp57
 70
     1
102
RTVSPropertyOp0
 70
     1
102
RTVSPropertyOp1
 70
     1
102
RTVSPropertyOp2
 70
     1
102
RTVSPropertyOp3
 70
     1
102
RTVSPropertyOp4
 70
     1
102
RTVSPropertyOp5
 70
     1
102
RTVSPropertyOp6
 70
     1
102
RTVSPropertyOp7
 70
     1
102
RTVSPropertyOp8
 70
     1
102
RTVSPropertyOp9
 70
     1
102
RTVSPropertyOp10
 70
     1
102
RTVSPropertyOp11
 70
     1
102
RTVSPropertyOp12
 70
     1
102
RTVSPropertyOp13
 70
     1
102
RTVSPropertyOp14
 70
     1
102
RTVSPropertyOp15
 70
     1
102
RTVSPropertyOp16
 70
     1
102
RTVSPropertyOp17
 70
     1
102
RTVSPropertyOp18
 70
     1
102
RTVSPropertyOp19
 70
     1
102
RTVSPropertyOp20
 70
     1
102
RTVSPropertyOp21
 70
     1
102
RTVSPropertyOp22
 70
     1
102
RTVSPropertyOp23
 70
     1
102
RTVSPropertyOp24
 70
     1
102
RTVSPropertyOp25
 70
     1
102
RTVSPropertyOp26
 70
     1
102
RTVSPropertyOp27
 70
     1
102
RTVSPropertyOp28
 70
     1
102
RTVSPropertyOp29
 70
     1
102
RTVSPropertyOp30
 70
     1
102
RTVSPropertyOp31
 70
     1
102
RTVSPropertyOp32
 70
     1
102
RTVSPropertyOp33
 70
     1
102
RTVSPropertyOp34
 70
     1
102
RTVSPropertyOp35
 70
     1
102
RTVSPropertyOp36
 70
     1
102
RTVSPropertyOp37
 70
     1
102
RTVSPropertyOp38
 70
     1
102
RTVSPropertyOp39
 70
     1
102
RTVSPropertyOp40
 70
     1
102
RTVSPropertyOp41
 70
     1
102
RTVSPropertyOp42
 70
     1
102
RTVSPropertyOp43
 70
     1
102
RTVSPropertyOp44
 70
     1
102
RTVSPropertyOp45
 70
     1
102
RTVSPropertyOp46
 70
     1
102
RTVSPropertyOp47
 70
     1
102
RTVSPropertyOp48
 70
     1
102
RTVSPropertyOp49
 70
     1
102
RTVSPropertyOp50
 70
     1
102
RTVSPropertyOp51
 70
     0
102
RTVSPropertyOp52
 70
     0
102
RTVSPropertyOp53
 70
     1
102
RTVSPropertyOp54
 70
     1
102
RTVSPropertyOp55
 70
     1
102
RTVSPropertyOp56
 70
     1
102
RTVSPropertyOp57
 70
     1
102
RTVSPropertyOp58
 70
     1
102
RTVSPropertyOp59
 70
     1
102
RTVSPropertyOp60
 70
     1
102
RTVSPropertyOp61
 70
     1
102
RTVSPropertyOp62
 70
     1
  0
XRECORD
  5
1636
102
{ACAD_REACTORS
330
1635
102
}
330
1635
100
AcDbXrecord
280
     1
102
RTVSPost2010Prop28
280
     0
102
RTVSPost2010PropOp28
 70
     1
102
RTVSPost2010Prop29
280
     1
102
RTVSPost2010PropOp29
 70
     1
102
RTVSPost2010Prop30
280
     1
102
RTVSPost2010PropOp30
 70
     1
102
RTVSPost2010Prop31
280
     0
102
RTVSPost2010PropOp31
 70
     1
102
RTVSPost2010Prop32
280
     0
102
RTVSPost2010PropOp32
 70
     1
102
RTVSPost2010Prop33
280
     0
102
RTVSPost2010PropOp33
 70
     1
102
RTVSPost2010Prop34
280
     0
102
RTVSPost2010PropOp34
 70
     1
102
RTVSPost2010Prop35
280
     0
102
RTVSPost2010PropOp35
 70
     1
102
RTVSPost2010Prop36
280
     0
102
RTVSPost2010PropOp36
 70
     1
102
RTVSPost2010Prop37
 90
       50
102
RTVSPost2010PropOp37
 70
     1
102
RTVSPost2010Prop38
140
0.0
102
RTVSPost2010PropOp38
 70
     1
102
RTVSPost2010Prop39
140
1.0
102
RTVSPost2010PropOp39
 70
     1
102
RTVSPost2010Prop40
 90
        0
102
RTVSPost2010PropOp40
 70
     1
102
RTVSPost2010Prop41ColorIndex
 90
       18
102
RTVSPost2010Prop41ColorRGB
 90
        0
102
RTVSPost2010PropOp41
 70
     1
102
RTVSPost2010Prop42
 90
       50
102
RTVSPost2010PropOp42
 70
     1
102
RTVSPost2010Prop43
 90
        3
102
RTVSPost2010PropOp43
 70
     1
102
RTVSPost2010Prop44ColorIndex
 90
        5
102
RTVSPost2010Prop44ColorRGB
 90
      255
102
RTVSPost2010PropOp44
 70
     1
102
RTVSPost2010Prop45
280
     0
102
RTVSPost2010PropOp45
 70
     1
102
RTVSPost2010Prop46
 90
       50
102
RTVSPost2010PropOp46
 70
     1
102
RTVSPost2010Prop47
 90
       50
102
RTVSPost2010PropOp47
 70
     1
102
RTVSPost2010Prop48
 90
       50
102
RTVSPost2010PropOp48
 70
     1
102
RTVSPost2010Prop49
280
     0
102
RTVSPost2010PropOp49
 70
     1
102
RTVSPost2010Prop50
 90
       50
102
RTVSPost2010PropOp50
 70
     1
102
RTVSPost2010Prop51ColorIndex
 90
      256
102
RTVSPost2010Prop51ColorRGB
 90
-16777216
102
RTVSPost2010PropOp51
 70
     0
102
RTVSPost2010Prop52
140
1.0
102
RTVSPost2010PropOp52
 70
     0
102
RTVSPost2010Prop53
 90
        2
102
RTVSPost2010PropOp53
 70
     1
102
RTVSPost2010Prop54
  1
strokes_ogs.tif
102
RTVSPost2010PropOp54
 70
     1
102
RTVSPost2010Prop55
280
     0
102
RTVSPost2010PropOp55
 70
     1
102
RTVSPost2010Prop56
140
1.0
102
RTVSPost2010PropOp56
 70
     1
102
RTVSPost2010Prop57
140
1.0
102
RTVSPost2010PropOp57
 70
     1
102
RTVSPropertyOp0
 70
     1
102
RTVSPropertyOp1
 70
     1
102
RTVSPropertyOp2
 70
     1
102
RTVSPropertyOp3
 70
     1
102
RTVSPropertyOp4
 70
     1
102
RTVSPropertyOp5
 70
     1
102
RTVSPropertyOp6
 70
     1
102
RTVSPropertyOp7
 70
     1
102
RTVSPropertyOp8
 70
     1
102
RTVSPropertyOp9
 70
     1
102
RTVSPropertyOp10
 70
     1
102
RTVSPropertyOp11
 70
     1
102
RTVSPropertyOp12
 70
     1
102
RTVSPropertyOp13
 70
     1
102
RTVSPropertyOp14
 70
     1
102
RTVSPropertyOp15
 70
     1
102
RTVSPropertyOp16
 70
     1
102
RTVSPropertyOp17
 70
     1
102
RTVSPropertyOp18
 70
     1
102
RTVSPropertyOp19
 70
     1
102
RTVSPropertyOp20
 70
     1
102
RTVSPropertyOp21
 70
     1
102
RTVSPropertyOp22
 70
     1
102
RTVSPropertyOp23
 70
     1
102
RTVSPropertyOp24
 70
     1
102
RTVSPropertyOp25
 70
     1
102
RTVSPropertyOp26
 70
     1
102
RTVSPropertyOp27
 70
     1
102
RTVSPropertyOp28
 70
     1
102
RTVSPropertyOp29
 70
     1
102
RTVSPropertyOp30
 70
     1
102
RTVSPropertyOp31
 70
     1
102
RTVSPropertyOp32
 70
     1
102
RTVSPropertyOp33
 70
     1
102
RTVSPropertyOp34
 70
     1
102
RTVSPropertyOp35
 70
     1
102
RTVSPropertyOp36
 70
     1
102
RTVSPropertyOp37
 70
     1
102
RTVSPropertyOp38
 70
     1
102
RTVSPropertyOp39
 70
     1
102
RTVSPropertyOp40
 70
     1
102
RTVSPropertyOp41
 70
     1
102
RTVSPropertyOp42
 70
     1
102
RTVSPropertyOp43
 70
     1
102
RTVSPropertyOp44
 70
     1
102
RTVSPropertyOp45
 70
     1
102
RTVSPropertyOp46
 70
     1
102
RTVSPropertyOp47
 70
     1
102
RTVSPropertyOp48
 70
     1
102
RTVSPropertyOp49
 70
     1
102
RTVSPropertyOp50
 70
     1
102
RTVSPropertyOp51
 70
     0
102
RTVSPropertyOp52
 70
     0
102
RTVSPropertyOp53
 70
     1
102
RTVSPropertyOp54
 70
     1
102
RTVSPropertyOp55
 70
     1
102
RTVSPropertyOp56
 70
     1
102
RTVSPropertyOp57
 70
     1
102
RTVSPropertyOp58
 70
     1
102
RTVSPropertyOp59
 70
     1
102
RTVSPropertyOp60
 70
     1
102
RTVSPropertyOp61
 70
     1
102
RTVSPropertyOp62
 70
     1
  0
XRECORD
  5
163E
102
{ACAD_REACTORS
330
163D
102
}
330
163D
100
AcDbXrecord
280
     1
102
RTVSPost2010Prop28
280
     0
102
RTVSPost2010PropOp28
 70
     1
102
RTVSPost2010Prop29
280
     1
102
RTVSPost2010PropOp29
 70
     1
102
RTVSPost2010Prop30
280
     1
102
RTVSPost2010PropOp30
 70
     1
102
RTVSPost2010Prop31
280
     0
102
RTVSPost2010PropOp31
 70
     1
102
RTVSPost2010Prop32
280
     0
102
RTVSPost2010PropOp32
 70
     1
102
RTVSPost2010Prop33
280
     0
102
RTVSPost2010PropOp33
 70
     1
102
RTVSPost2010Prop34
280
     0
102
RTVSPost2010PropOp34
 70
     1
102
RTVSPost2010Prop35
280
     0
102
RTVSPost2010PropOp35
 70
     1
102
RTVSPost2010Prop36
280
     0
102
RTVSPost2010PropOp36
 70
     1
102
RTVSPost2010Prop37
 90
       50
102
RTVSPost2010PropOp37
 70
     1
102
RTVSPost2010Prop38
140
0.0
102
RTVSPost2010PropOp38
 70
     1
102
RTVSPost2010Prop39
140
1.0
102
RTVSPost2010PropOp39
 70
     1
102
RTVSPost2010Prop40
 90
        0
102
RTVSPost2010PropOp40
 70
     1
102
RTVSPost2010Prop41ColorIndex
 90
       18
102
RTVSPost2010Prop41ColorRGB
 90
        0
102
RTVSPost2010PropOp41
 70
     1
102
RTVSPost2010Prop42
 90
       50
102
RTVSPost2010PropOp42
 70
     1
102
RTVSPost2010Prop43
 90
        3
102
RTVSPost2010PropOp43
 70
     1
102
RTVSPost2010Prop44ColorIndex
 90
        5
102
RTVSPost2010Prop44ColorRGB
 90
      255
102
RTVSPost2010PropOp44
 70
     1
102
RTVSPost2010Prop45
280
     0
102
RTVSPost2010PropOp45
 70
     1
102
RTVSPost2010Prop46
 90
       50
102
RTVSPost2010PropOp46
 70
     1
102
RTVSPost2010Prop47
 90
       50
102
RTVSPost2010PropOp47
 70
     1
102
RTVSPost2010Prop48
 90
       50
102
RTVSPost2010PropOp48
 70
     1
102
RTVSPost2010Prop49
280
     0
102
RTVSPost2010PropOp49
 70
     1
102
RTVSPost2010Prop50
 90
       50
102
RTVSPost2010PropOp50
 70
     1
102
RTVSPost2010Prop51ColorIndex
 90
      256
102
RTVSPost2010Prop51ColorRGB
 90
-16777216
102
RTVSPost2010PropOp51
 70
     0
102
RTVSPost2010Prop52
140
1.0
102
RTVSPost2010PropOp52
 70
     0
102
RTVSPost2010Prop53
 90
        2
102
RTVSPost2010PropOp53
 70
     1
102
RTVSPost2010Prop54
  1
strokes_ogs.tif
102
RTVSPost2010PropOp54
 70
     1
102
RTVSPost2010Prop55
280
     0
102
RTVSPost2010PropOp55
 70
     1
102
RTVSPost2010Prop56
140
1.0
102
RTVSPost2010PropOp56
 70
     1
102
RTVSPost2010Prop57
140
1.0
102
RTVSPost2010PropOp57
 70
     1
102
RTVSPropertyOp0
 70
     1
102
RTVSPropertyOp1
 70
     1
102
RTVSPropertyOp2
 70
     1
102
RTVSPropertyOp3
 70
     1
102
RTVSPropertyOp4
 70
     1
102
RTVSPropertyOp5
 70
     1
102
RTVSPropertyOp6
 70
     1
102
RTVSPropertyOp7
 70
     1
102
RTVSPropertyOp8
 70
     1
102
RTVSPropertyOp9
 70
     1
102
RTVSPropertyOp10
 70
     1
102
RTVSPropertyOp11
 70
     1
102
RTVSPropertyOp12
 70
     1
102
RTVSPropertyOp13
 70
     1
102
RTVSPropertyOp14
 70
     1
102
RTVSPropertyOp15
 70
     1
102
RTVSPropertyOp16
 70
     1
102
RTVSPropertyOp17
 70
     1
102
RTVSPropertyOp18
 70
     1
102
RTVSPropertyOp19
 70
     1
102
RTVSPropertyOp20
 70
     1
102
RTVSPropertyOp21
 70
     1
102
RTVSPropertyOp22
 70
     1
102
RTVSPropertyOp23
 70
     1
102
RTVSPropertyOp24
 70
     1
102
RTVSPropertyOp25
 70
     1
102
RTVSPropertyOp26
 70
     1
102
RTVSPropertyOp27
 70
     1
102
RTVSPropertyOp28
 70
     1
102
RTVSPropertyOp29
 70
     1
102
RTVSPropertyOp30
 70
     1
102
RTVSPropertyOp31
 70
     1
102
RTVSPropertyOp32
 70
     1
102
RTVSPropertyOp33
 70
     1
102
RTVSPropertyOp34
 70
     1
102
RTVSPropertyOp35
 70
     1
102
RTVSPropertyOp36
 70
     1
102
RTVSPropertyOp37
 70
     1
102
RTVSPropertyOp38
 70
     1
102
RTVSPropertyOp39
 70
     1
102
RTVSPropertyOp40
 70
     1
102
RTVSPropertyOp41
 70
     1
102
RTVSPropertyOp42
 70
     1
102
RTVSPropertyOp43
 70
     1
102
RTVSPropertyOp44
 70
     1
102
RTVSPropertyOp45
 70
     1
102
RTVSPropertyOp46
 70
     1
102
RTVSPropertyOp47
 70
     1
102
RTVSPropertyOp48
 70
     1
102
RTVSPropertyOp49
 70
     1
102
RTVSPropertyOp50
 70
     1
102
RTVSPropertyOp51
 70
     0
102
RTVSPropertyOp52
 70
     0
102
RTVSPropertyOp53
 70
     1
102
RTVSPropertyOp54
 70
     1
102
RTVSPropertyOp55
 70
     1
102
RTVSPropertyOp56
 70
     1
102
RTVSPropertyOp57
 70
     1
102
RTVSPropertyOp58
 70
     1
102
RTVSPropertyOp59
 70
     1
102
RTVSPropertyOp60
 70
     1
102
RTVSPropertyOp61
 70
     1
102
RTVSPropertyOp62
 70
     1
  0
XRECORD
  5
1630
102
{ACAD_REACTORS
330
162F
102
}
330
162F
100
AcDbXrecord
280
     1
102
RTVSPost2010Prop28
280
     0
102
RTVSPost2010PropOp28
 70
     1
102
RTVSPost2010Prop29
280
     1
102
RTVSPost2010PropOp29
 70
     1
102
RTVSPost2010Prop30
280
     1
102
RTVSPost2010PropOp30
 70
     1
102
RTVSPost2010Prop31
280
     0
102
RTVSPost2010PropOp31
 70
     1
102
RTVSPost2010Prop32
280
     0
102
RTVSPost2010PropOp32
 70
     1
102
RTVSPost2010Prop33
280
     0
102
RTVSPost2010PropOp33
 70
     1
102
RTVSPost2010Prop34
280
     0
102
RTVSPost2010PropOp34
 70
     1
102
RTVSPost2010Prop35
280
     0
102
RTVSPost2010PropOp35
 70
     1
102
RTVSPost2010Prop36
280
     0
102
RTVSPost2010PropOp36
 70
     1
102
RTVSPost2010Prop37
 90
       50
102
RTVSPost2010PropOp37
 70
     1
102
RTVSPost2010Prop38
140
0.0
102
RTVSPost2010PropOp38
 70
     1
102
RTVSPost2010Prop39
140
1.0
102
RTVSPost2010PropOp39
 70
     1
102
RTVSPost2010Prop40
 90
        0
102
RTVSPost2010PropOp40
 70
     1
102
RTVSPost2010Prop41ColorIndex
 90
       18
102
RTVSPost2010Prop41ColorRGB
 90
        0
102
RTVSPost2010PropOp41
 70
     1
102
RTVSPost2010Prop42
 90
       50
102
RTVSPost2010PropOp42
 70
     1
102
RTVSPost2010Prop43
 90
        3
102
RTVSPost2010PropOp43
 70
     1
102
RTVSPost2010Prop44ColorIndex
 90
        5
102
RTVSPost2010Prop44ColorRGB
 90
      255
102
RTVSPost2010PropOp44
 70
     1
102
RTVSPost2010Prop45
280
     0
102
RTVSPost2010PropOp45
 70
     1
102
RTVSPost2010Prop46
 90
       50
102
RTVSPost2010PropOp46
 70
     1
102
RTVSPost2010Prop47
 90
       50
102
RTVSPost2010PropOp47
 70
     1
102
RTVSPost2010Prop48
 90
       50
102
RTVSPost2010PropOp48
 70
     1
102
RTVSPost2010Prop49
280
     0
102
RTVSPost2010PropOp49
 70
     1
102
RTVSPost2010Prop50
 90
       50
102
RTVSPost2010PropOp50
 70
     1
102
RTVSPost2010Prop51ColorIndex
 90
      256
102
RTVSPost2010Prop51ColorRGB
 90
-16777216
102
RTVSPost2010PropOp51
 70
     0
102
RTVSPost2010Prop52
140
1.0
102
RTVSPost2010PropOp52
 70
     0
102
RTVSPost2010Prop53
 90
        2
102
RTVSPost2010PropOp53
 70
     1
102
RTVSPost2010Prop54
  1
strokes_ogs.tif
102
RTVSPost2010PropOp54
 70
     1
102
RTVSPost2010Prop55
280
     0
102
RTVSPost2010PropOp55
 70
     1
102
RTVSPost2010Prop56
140
1.0
102
RTVSPost2010PropOp56
 70
     1
102
RTVSPost2010Prop57
140
1.0
102
RTVSPost2010PropOp57
 70
     1
102
RTVSPropertyOp0
 70
     1
102
RTVSPropertyOp1
 70
     1
102
RTVSPropertyOp2
 70
     1
102
RTVSPropertyOp3
 70
     1
102
RTVSPropertyOp4
 70
     1
102
RTVSPropertyOp5
 70
     1
102
RTVSPropertyOp6
 70
     1
102
RTVSPropertyOp7
 70
     1
102
RTVSPropertyOp8
 70
     1
102
RTVSPropertyOp9
 70
     1
102
RTVSPropertyOp10
 70
     1
102
RTVSPropertyOp11
 70
     1
102
RTVSPropertyOp12
 70
     1
102
RTVSPropertyOp13
 70
     1
102
RTVSPropertyOp14
 70
     1
102
RTVSPropertyOp15
 70
     1
102
RTVSPropertyOp16
 70
     1
102
RTVSPropertyOp17
 70
     1
102
RTVSPropertyOp18
 70
     1
102
RTVSPropertyOp19
 70
     1
102
RTVSPropertyOp20
 70
     1
102
RTVSPropertyOp21
 70
     1
102
RTVSPropertyOp22
 70
     1
102
RTVSPropertyOp23
 70
     1
102
RTVSPropertyOp24
 70
     1
102
RTVSPropertyOp25
 70
     1
102
RTVSPropertyOp26
 70
     1
102
RTVSPropertyOp27
 70
     1
102
RTVSPropertyOp28
 70
     1
102
RTVSPropertyOp29
 70
     1
102
RTVSPropertyOp30
 70
     1
102
RTVSPropertyOp31
 70
     1
102
RTVSPropertyOp32
 70
     1
102
RTVSPropertyOp33
 70
     1
102
RTVSPropertyOp34
 70
     1
102
RTVSPropertyOp35
 70
     1
102
RTVSPropertyOp36
 70
     1
102
RTVSPropertyOp37
 70
     1
102
RTVSPropertyOp38
 70
     1
102
RTVSPropertyOp39
 70
     1
102
RTVSPropertyOp40
 70
     1
102
RTVSPropertyOp41
 70
     1
102
RTVSPropertyOp42
 70
     1
102
RTVSPropertyOp43
 70
     1
102
RTVSPropertyOp44
 70
     1
102
RTVSPropertyOp45
 70
     1
102
RTVSPropertyOp46
 70
     1
102
RTVSPropertyOp47
 70
     1
102
RTVSPropertyOp48
 70
     1
102
RTVSPropertyOp49
 70
     1
102
RTVSPropertyOp50
 70
     1
102
RTVSPropertyOp51
 70
     0
102
RTVSPropertyOp52
 70
     0
102
RTVSPropertyOp53
 70
     1
102
RTVSPropertyOp54
 70
     1
102
RTVSPropertyOp55
 70
     1
102
RTVSPropertyOp56
 70
     1
102
RTVSPropertyOp57
 70
     1
102
RTVSPropertyOp58
 70
     1
102
RTVSPropertyOp59
 70
     1
102
RTVSPropertyOp60
 70
     1
102
RTVSPropertyOp61
 70
     1
102
RTVSPropertyOp62
 70
     1
  0
XRECORD
  5
1634
102
{ACAD_REACTORS
330
1633
102
}
330
1633
100
AcDbXrecord
280
     1
102
RTVSPost2010Prop28
280
     0
102
RTVSPost2010PropOp28
 70
     1
102
RTVSPost2010Prop29
280
     1
102
RTVSPost2010PropOp29
 70
     1
102
RTVSPost2010Prop30
280
     1
102
RTVSPost2010PropOp30
 70
     1
102
RTVSPost2010Prop31
280
     0
102
RTVSPost2010PropOp31
 70
     1
102
RTVSPost2010Prop32
280
     0
102
RTVSPost2010PropOp32
 70
     1
102
RTVSPost2010Prop33
280
     0
102
RTVSPost2010PropOp33
 70
     1
102
RTVSPost2010Prop34
280
     0
102
RTVSPost2010PropOp34
 70
     1
102
RTVSPost2010Prop35
280
     0
102
RTVSPost2010PropOp35
 70
     1
102
RTVSPost2010Prop36
280
     0
102
RTVSPost2010PropOp36
 70
     1
102
RTVSPost2010Prop37
 90
       50
102
RTVSPost2010PropOp37
 70
     1
102
RTVSPost2010Prop38
140
0.0
102
RTVSPost2010PropOp38
 70
     1
102
RTVSPost2010Prop39
140
1.0
102
RTVSPost2010PropOp39
 70
     1
102
RTVSPost2010Prop40
 90
        0
102
RTVSPost2010PropOp40
 70
     1
102
RTVSPost2010Prop41ColorIndex
 90
       18
102
RTVSPost2010Prop41ColorRGB
 90
        0
102
RTVSPost2010PropOp41
 70
     1
102
RTVSPost2010Prop42
 90
       50
102
RTVSPost2010PropOp42
 70
     1
102
RTVSPost2010Prop43
 90
        3
102
RTVSPost2010PropOp43
 70
     1
102
RTVSPost2010Prop44ColorIndex
 90
        5
102
RTVSPost2010Prop44ColorRGB
 90
      255
102
RTVSPost2010PropOp44
 70
     1
102
RTVSPost2010Prop45
280
     0
102
RTVSPost2010PropOp45
 70
     1
102
RTVSPost2010Prop46
 90
       50
102
RTVSPost2010PropOp46
 70
     1
102
RTVSPost2010Prop47
 90
       50
102
RTVSPost2010PropOp47
 70
     1
102
RTVSPost2010Prop48
 90
       50
102
RTVSPost2010PropOp48
 70
     1
102
RTVSPost2010Prop49
280
     0
102
RTVSPost2010PropOp49
 70
     1
102
RTVSPost2010Prop50
 90
       50
102
RTVSPost2010PropOp50
 70
     1
102
RTVSPost2010Prop51ColorIndex
 90
      256
102
RTVSPost2010Prop51ColorRGB
 90
-16777216
102
RTVSPost2010PropOp51
 70
     0
102
RTVSPost2010Prop52
140
1.0
102
RTVSPost2010PropOp52
 70
     0
102
RTVSPost2010Prop53
 90
        2
102
RTVSPost2010PropOp53
 70
     1
102
RTVSPost2010Prop54
  1
strokes_ogs.tif
102
RTVSPost2010PropOp54
 70
     1
102
RTVSPost2010Prop55
280
     0
102
RTVSPost2010PropOp55
 70
     1
102
RTVSPost2010Prop56
140
1.0
102
RTVSPost2010PropOp56
 70
     1
102
RTVSPost2010Prop57
140
1.0
102
RTVSPost2010PropOp57
 70
     1
102
RTVSPropertyOp0
 70
     1
102
RTVSPropertyOp1
 70
     1
102
RTVSPropertyOp2
 70
     1
102
RTVSPropertyOp3
 70
     1
102
RTVSPropertyOp4
 70
     1
102
RTVSPropertyOp5
 70
     1
102
RTVSPropertyOp6
 70
     1
102
RTVSPropertyOp7
 70
     1
102
RTVSPropertyOp8
 70
     1
102
RTVSPropertyOp9
 70
     1
102
RTVSPropertyOp10
 70
     1
102
RTVSPropertyOp11
 70
     1
102
RTVSPropertyOp12
 70
     1
102
RTVSPropertyOp13
 70
     1
102
RTVSPropertyOp14
 70
     1
102
RTVSPropertyOp15
 70
     1
102
RTVSPropertyOp16
 70
     1
102
RTVSPropertyOp17
 70
     1
102
RTVSPropertyOp18
 70
     1
102
RTVSPropertyOp19
 70
     1
102
RTVSPropertyOp20
 70
     1
102
RTVSPropertyOp21
 70
     1
102
RTVSPropertyOp22
 70
     1
102
RTVSPropertyOp23
 70
     1
102
RTVSPropertyOp24
 70
     1
102
RTVSPropertyOp25
 70
     1
102
RTVSPropertyOp26
 70
     1
102
RTVSPropertyOp27
 70
     1
102
RTVSPropertyOp28
 70
     1
102
RTVSPropertyOp29
 70
     1
102
RTVSPropertyOp30
 70
     1
102
RTVSPropertyOp31
 70
     1
102
RTVSPropertyOp32
 70
     1
102
RTVSPropertyOp33
 70
     1
102
RTVSPropertyOp34
 70
     1
102
RTVSPropertyOp35
 70
     1
102
RTVSPropertyOp36
 70
     1
102
RTVSPropertyOp37
 70
     1
102
RTVSPropertyOp38
 70
     1
102
RTVSPropertyOp39
 70
     1
102
RTVSPropertyOp40
 70
     1
102
RTVSPropertyOp41
 70
     1
102
RTVSPropertyOp42
 70
     1
102
RTVSPropertyOp43
 70
     1
102
RTVSPropertyOp44
 70
     1
102
RTVSPropertyOp45
 70
     1
102
RTVSPropertyOp46
 70
     1
102
RTVSPropertyOp47
 70
     1
102
RTVSPropertyOp48
 70
     1
102
RTVSPropertyOp49
 70
     1
102
RTVSPropertyOp50
 70
     1
102
RTVSPropertyOp51
 70
     0
102
RTVSPropertyOp52
 70
     0
102
RTVSPropertyOp53
 70
     1
102
RTVSPropertyOp54
 70
     1
102
RTVSPropertyOp55
 70
     1
102
RTVSPropertyOp56
 70
     1
102
RTVSPropertyOp57
 70
     1
102
RTVSPropertyOp58
 70
     1
102
RTVSPropertyOp59
 70
     1
102
RTVSPropertyOp60
 70
     1
102
RTVSPropertyOp61
 70
     1
102
RTVSPropertyOp62
 70
     1
  0
XRECORD
  5
1653
102
{ACAD_REACTORS
330
1652
102
}
330
1652
100
AcDbXrecord
280
     1
102
RTVSPost2010Prop28
280
     0
102
RTVSPost2010PropOp28
 70
     0
102
RTVSPost2010Prop29
280
     1
102
RTVSPost2010PropOp29
 70
     0
102
RTVSPost2010Prop30
280
     1
102
RTVSPost2010PropOp30
 70
     0
102
RTVSPost2010Prop31
280
     0
102
RTVSPost2010PropOp31
 70
     0
102
RTVSPost2010Prop32
280
     0
102
RTVSPost2010PropOp32
 70
     0
102
RTVSPost2010Prop33
280
     0
102
RTVSPost2010PropOp33
 70
     0
102
RTVSPost2010Prop34
280
     0
102
RTVSPost2010PropOp34
 70
     0
102
RTVSPost2010Prop35
280
     0
102
RTVSPost2010PropOp35
 70
     0
102
RTVSPost2010Prop36
280
     0
102
RTVSPost2010PropOp36
 70
     0
102
RTVSPost2010Prop37
 90
       50
102
RTVSPost2010PropOp37
 70
     0
102
RTVSPost2010Prop38
140
0.0
102
RTVSPost2010PropOp38
 70
     0
102
RTVSPost2010Prop39
140
1.0
102
RTVSPost2010PropOp39
 70
     0
102
RTVSPost2010Prop40
 90
        0
102
RTVSPost2010PropOp40
 70
     0
102
RTVSPost2010Prop41ColorIndex
 90
       18
102
RTVSPost2010Prop41ColorRGB
 90
        0
102
RTVSPost2010PropOp41
 70
     0
102
RTVSPost2010Prop42
 90
       50
102
RTVSPost2010PropOp42
 70
     0
102
RTVSPost2010Prop43
 90
        3
102
RTVSPost2010PropOp43
 70
     0
102
RTVSPost2010Prop44ColorIndex
 90
        5
102
RTVSPost2010Prop44ColorRGB
 90
      255
102
RTVSPost2010PropOp44
 70
     0
102
RTVSPost2010Prop45
280
     0
102
RTVSPost2010PropOp45
 70
     0
102
RTVSPost2010Prop46
 90
       50
102
RTVSPost2010PropOp46
 70
     0
102
RTVSPost2010Prop47
 90
       50
102
RTVSPost2010PropOp47
 70
     0
102
RTVSPost2010Prop48
 90
       50
102
RTVSPost2010PropOp48
 70
     0
102
RTVSPost2010Prop49
280
     0
102
RTVSPost2010PropOp49
 70
     0
102
RTVSPost2010Prop50
 90
       50
102
RTVSPost2010PropOp50
 70
     0
102
RTVSPost2010Prop51ColorIndex
 90
      256
102
RTVSPost2010Prop51ColorRGB
 90
-16777216
102
RTVSPost2010PropOp51
 70
     0
102
RTVSPost2010Prop52
140
1.0
102
RTVSPost2010PropOp52
 70
     0
102
RTVSPost2010Prop53
 90
        2
102
RTVSPost2010PropOp53
 70
     0
102
RTVSPost2010Prop54
  1
strokes_ogs.tif
102
RTVSPost2010PropOp54
 70
     0
102
RTVSPost2010Prop55
280
     0
102
RTVSPost2010PropOp55
 70
     0
102
RTVSPost2010Prop56
140
1.0
102
RTVSPost2010PropOp56
 70
     0
102
RTVSPost2010Prop57
140
1.0
102
RTVSPost2010PropOp57
 70
     0
102
RTVSPropertyOp0
 70
     0
102
RTVSPropertyOp1
 70
     0
102
RTVSPropertyOp2
 70
     0
102
RTVSPropertyOp3
 70
     0
102
RTVSPropertyOp4
 70
     0
102
RTVSPropertyOp5
 70
     0
102
RTVSPropertyOp6
 70
     0
102
RTVSPropertyOp7
 70
     0
102
RTVSPropertyOp8
 70
     0
102
RTVSPropertyOp9
 70
     0
102
RTVSPropertyOp10
 70
     0
102
RTVSPropertyOp11
 70
     0
102
RTVSPropertyOp12
 70
     0
102
RTVSPropertyOp13
 70
     0
102
RTVSPropertyOp14
 70
     2
102
RTVSPropertyOp15
 70
     0
102
RTVSPropertyOp16
 70
     0
102
RTVSPropertyOp17
 70
     0
102
RTVSPropertyOp18
 70
     0
102
RTVSPropertyOp19
 70
     0
102
RTVSPropertyOp20
 70
     0
102
RTVSPropertyOp21
 70
     0
102
RTVSPropertyOp22
 70
     0
102
RTVSPropertyOp23
 70
     0
102
RTVSPropertyOp24
 70
     0
102
RTVSPropertyOp25
 70
     0
102
RTVSPropertyOp26
 70
     0
102
RTVSPropertyOp27
 70
     0
102
RTVSPropertyOp28
 70
     0
102
RTVSPropertyOp29
 70
     0
102
RTVSPropertyOp30
 70
     0
102
RTVSPropertyOp31
 70
     0
102
RTVSPropertyOp32
 70
     0
102
RTVSPropertyOp33
 70
     0
102
RTVSPropertyOp34
 70
     0
102
RTVSPropertyOp35
 70
     0
102
RTVSPropertyOp36
 70
     0
102
RTVSPropertyOp37
 70
     0
102
RTVSPropertyOp38
 70
     0
102
RTVSPropertyOp39
 70
     0
102
RTVSPropertyOp40
 70
     0
102
RTVSPropertyOp41
 70
     0
102
RTVSPropertyOp42
 70
     0
102
RTVSPropertyOp43
 70
     0
102
RTVSPropertyOp44
 70
     0
102
RTVSPropertyOp45
 70
     0
102
RTVSPropertyOp46
 70
     0
102
RTVSPropertyOp47
 70
     0
102
RTVSPropertyOp48
 70
     0
102
RTVSPropertyOp49
 70
     0
102
RTVSPropertyOp50
 70
     0
102
RTVSPropertyOp51
 70
     0
102
RTVSPropertyOp52
 70
     0
102
RTVSPropertyOp53
 70
     0
102
RTVSPropertyOp54
 70
     0
102
RTVSPropertyOp55
 70
     0
102
RTVSPropertyOp56
 70
     0
102
RTVSPropertyOp57
 70
     0
102
RTVSPropertyOp58
 70
     0
102
RTVSPropertyOp59
 70
     0
102
RTVSPropertyOp60
 70
     0
102
RTVSPropertyOp61
 70
     0
102
RTVSPropertyOp62
 70
     0
  0
XRECORD
  5
163C
102
{ACAD_REACTORS
330
163B
102
}
330
163B
100
AcDbXrecord
280
     1
102
RTVSPost2010Prop28
280
     0
102
RTVSPost2010PropOp28
 70
     1
102
RTVSPost2010Prop29
280
     1
102
RTVSPost2010PropOp29
 70
     1
102
RTVSPost2010Prop30
280
     1
102
RTVSPost2010PropOp30
 70
     1
102
RTVSPost2010Prop31
280
     0
102
RTVSPost2010PropOp31
 70
     1
102
RTVSPost2010Prop32
280
     0
102
RTVSPost2010PropOp32
 70
     1
102
RTVSPost2010Prop33
280
     0
102
RTVSPost2010PropOp33
 70
     1
102
RTVSPost2010Prop34
280
     0
102
RTVSPost2010PropOp34
 70
     1
102
RTVSPost2010Prop35
280
     0
102
RTVSPost2010PropOp35
 70
     1
102
RTVSPost2010Prop36
280
     0
102
RTVSPost2010PropOp36
 70
     1
102
RTVSPost2010Prop37
 90
       50
102
RTVSPost2010PropOp37
 70
     1
102
RTVSPost2010Prop38
140
0.0
102
RTVSPost2010PropOp38
 70
     1
102
RTVSPost2010Prop39
140
1.0
102
RTVSPost2010PropOp39
 70
     1
102
RTVSPost2010Prop40
 90
        0
102
RTVSPost2010PropOp40
 70
     1
102
RTVSPost2010Prop41ColorIndex
 90
       18
102
RTVSPost2010Prop41ColorRGB
 90
        0
102
RTVSPost2010PropOp41
 70
     1
102
RTVSPost2010Prop42
 90
       50
102
RTVSPost2010PropOp42
 70
     1
102
RTVSPost2010Prop43
 90
        3
102
RTVSPost2010PropOp43
 70
     1
102
RTVSPost2010Prop44ColorIndex
 90
        5
102
RTVSPost2010Prop44ColorRGB
 90
      255
102
RTVSPost2010PropOp44
 70
     1
102
RTVSPost2010Prop45
280
     0
102
RTVSPost2010PropOp45
 70
     1
102
RTVSPost2010Prop46
 90
       50
102
RTVSPost2010PropOp46
 70
     1
102
RTVSPost2010Prop47
 90
       50
102
RTVSPost2010PropOp47
 70
     1
102
RTVSPost2010Prop48
 90
       50
102
RTVSPost2010PropOp48
 70
     1
102
RTVSPost2010Prop49
280
     0
102
RTVSPost2010PropOp49
 70
     1
102
RTVSPost2010Prop50
 90
       50
102
RTVSPost2010PropOp50
 70
     1
102
RTVSPost2010Prop51ColorIndex
 90
      256
102
RTVSPost2010Prop51ColorRGB
 90
-16777216
102
RTVSPost2010PropOp51
 70
     0
102
RTVSPost2010Prop52
140
1.0
102
RTVSPost2010PropOp52
 70
     0
102
RTVSPost2010Prop53
 90
        2
102
RTVSPost2010PropOp53
 70
     1
102
RTVSPost2010Prop54
  1
strokes_ogs.tif
102
RTVSPost2010PropOp54
 70
     1
102
RTVSPost2010Prop55
280
     0
102
RTVSPost2010PropOp55
 70
     1
102
RTVSPost2010Prop56
140
1.0
102
RTVSPost2010PropOp56
 70
     1
102
RTVSPost2010Prop57
140
1.0
102
RTVSPost2010PropOp57
 70
     1
102
RTVSPropertyOp0
 70
     1
102
RTVSPropertyOp1
 70
     1
102
RTVSPropertyOp2
 70
     1
102
RTVSPropertyOp3
 70
     1
102
RTVSPropertyOp4
 70
     1
102
RTVSPropertyOp5
 70
     1
102
RTVSPropertyOp6
 70
     1
102
RTVSPropertyOp7
 70
     1
102
RTVSPropertyOp8
 70
     1
102
RTVSPropertyOp9
 70
     1
102
RTVSPropertyOp10
 70
     1
102
RTVSPropertyOp11
 70
     1
102
RTVSPropertyOp12
 70
     1
102
RTVSPropertyOp13
 70
     1
102
RTVSPropertyOp14
 70
     1
102
RTVSPropertyOp15
 70
     1
102
RTVSPropertyOp16
 70
     1
102
RTVSPropertyOp17
 70
     1
102
RTVSPropertyOp18
 70
     1
102
RTVSPropertyOp19
 70
     1
102
RTVSPropertyOp20
 70
     1
102
RTVSPropertyOp21
 70
     1
102
RTVSPropertyOp22
 70
     1
102
RTVSPropertyOp23
 70
     1
102
RTVSPropertyOp24
 70
     1
102
RTVSPropertyOp25
 70
     1
102
RTVSPropertyOp26
 70
     1
102
RTVSPropertyOp27
 70
     1
102
RTVSPropertyOp28
 70
     1
102
RTVSPropertyOp29
 70
     1
102
RTVSPropertyOp30
 70
     1
102
RTVSPropertyOp31
 70
     1
102
RTVSPropertyOp32
 70
     1
102
RTVSPropertyOp33
 70
     1
102
RTVSPropertyOp34
 70
     1
102
RTVSPropertyOp35
 70
     1
102
RTVSPropertyOp36
 70
     1
102
RTVSPropertyOp37
 70
     1
102
RTVSPropertyOp38
 70
     1
102
RTVSPropertyOp39
 70
     1
102
RTVSPropertyOp40
 70
     1
102
RTVSPropertyOp41
 70
     1
102
RTVSPropertyOp42
 70
     1
102
RTVSPropertyOp43
 70
     1
102
RTVSPropertyOp44
 70
     1
102
RTVSPropertyOp45
 70
     1
102
RTVSPropertyOp46
 70
     1
102
RTVSPropertyOp47
 70
     1
102
RTVSPropertyOp48
 70
     1
102
RTVSPropertyOp49
 70
     1
102
RTVSPropertyOp50
 70
     1
102
RTVSPropertyOp51
 70
     0
102
RTVSPropertyOp52
 70
     0
102
RTVSPropertyOp53
 70
     1
102
RTVSPropertyOp54
 70
     1
102
RTVSPropertyOp55
 70
     1
102
RTVSPropertyOp56
 70
     1
102
RTVSPropertyOp57
 70
     1
102
RTVSPropertyOp58
 70
     1
102
RTVSPropertyOp59
 70
     1
102
RTVSPropertyOp60
 70
     1
102
RTVSPropertyOp61
 70
     1
102
RTVSPropertyOp62
 70
     1
  0
XRECORD
  5
1620
102
{ACAD_REACTORS
330
161F
102
}
330
161F
100
AcDbXrecord
280
     1
102
RTVSPost2010Prop28
280
     0
102
RTVSPost2010PropOp28
 70
     1
102
RTVSPost2010Prop29
280
     1
102
RTVSPost2010PropOp29
 70
     1
102
RTVSPost2010Prop30
280
     1
102
RTVSPost2010PropOp30
 70
     1
102
RTVSPost2010Prop31
280
     0
102
RTVSPost2010PropOp31
 70
     1
102
RTVSPost2010Prop32
280
     0
102
RTVSPost2010PropOp32
 70
     1
102
RTVSPost2010Prop33
280
     0
102
RTVSPost2010PropOp33
 70
     1
102
RTVSPost2010Prop34
280
     0
102
RTVSPost2010PropOp34
 70
     1
102
RTVSPost2010Prop35
280
     0
102
RTVSPost2010PropOp35
 70
     1
102
RTVSPost2010Prop36
280
     0
102
RTVSPost2010PropOp36
 70
     1
102
RTVSPost2010Prop37
 90
       50
102
RTVSPost2010PropOp37
 70
     1
102
RTVSPost2010Prop38
140
0.0
102
RTVSPost2010PropOp38
 70
     1
102
RTVSPost2010Prop39
140
1.0
102
RTVSPost2010PropOp39
 70
     1
102
RTVSPost2010Prop40
 90
        0
102
RTVSPost2010PropOp40
 70
     1
102
RTVSPost2010Prop41ColorIndex
 90
       18
102
RTVSPost2010Prop41ColorRGB
 90
        0
102
RTVSPost2010PropOp41
 70
     1
102
RTVSPost2010Prop42
 90
       50
102
RTVSPost2010PropOp42
 70
     1
102
RTVSPost2010Prop43
 90
        3
102
RTVSPost2010PropOp43
 70
     1
102
RTVSPost2010Prop44ColorIndex
 90
        5
102
RTVSPost2010Prop44ColorRGB
 90
      255
102
RTVSPost2010PropOp44
 70
     1
102
RTVSPost2010Prop45
280
     0
102
RTVSPost2010PropOp45
 70
     1
102
RTVSPost2010Prop46
 90
       50
102
RTVSPost2010PropOp46
 70
     1
102
RTVSPost2010Prop47
 90
       50
102
RTVSPost2010PropOp47
 70
     1
102
RTVSPost2010Prop48
 90
       50
102
RTVSPost2010PropOp48
 70
     1
102
RTVSPost2010Prop49
280
     0
102
RTVSPost2010PropOp49
 70
     1
102
RTVSPost2010Prop50
 90
       50
102
RTVSPost2010PropOp50
 70
     1
102
RTVSPost2010Prop51ColorIndex
 90
      256
102
RTVSPost2010Prop51ColorRGB
 90
-16777216
102
RTVSPost2010PropOp51
 70
     0
102
RTVSPost2010Prop52
140
1.0
102
RTVSPost2010PropOp52
 70
     0
102
RTVSPost2010Prop53
 90
        2
102
RTVSPost2010PropOp53
 70
     1
102
RTVSPost2010Prop54
  1
strokes_ogs.tif
102
RTVSPost2010PropOp54
 70
     1
102
RTVSPost2010Prop55
280
     0
102
RTVSPost2010PropOp55
 70
     1
102
RTVSPost2010Prop56
140
1.0
102
RTVSPost2010PropOp56
 70
     1
102
RTVSPost2010Prop57
140
1.0
102
RTVSPost2010PropOp57
 70
     1
102
RTVSPropertyOp0
 70
     1
102
RTVSPropertyOp1
 70
     1
102
RTVSPropertyOp2
 70
     1
102
RTVSPropertyOp3
 70
     1
102
RTVSPropertyOp4
 70
     1
102
RTVSPropertyOp5
 70
     1
102
RTVSPropertyOp6
 70
     1
102
RTVSPropertyOp7
 70
     1
102
RTVSPropertyOp8
 70
     1
102
RTVSPropertyOp9
 70
     1
102
RTVSPropertyOp10
 70
     1
102
RTVSPropertyOp11
 70
     1
102
RTVSPropertyOp12
 70
     1
102
RTVSPropertyOp13
 70
     1
102
RTVSPropertyOp14
 70
     1
102
RTVSPropertyOp15
 70
     1
102
RTVSPropertyOp16
 70
     1
102
RTVSPropertyOp17
 70
     1
102
RTVSPropertyOp18
 70
     1
102
RTVSPropertyOp19
 70
     1
102
RTVSPropertyOp20
 70
     1
102
RTVSPropertyOp21
 70
     1
102
RTVSPropertyOp22
 70
     1
102
RTVSPropertyOp23
 70
     1
102
RTVSPropertyOp24
 70
     1
102
RTVSPropertyOp25
 70
     1
102
RTVSPropertyOp26
 70
     1
102
RTVSPropertyOp27
 70
     1
102
RTVSPropertyOp28
 70
     1
102
RTVSPropertyOp29
 70
     1
102
RTVSPropertyOp30
 70
     1
102
RTVSPropertyOp31
 70
     1
102
RTVSPropertyOp32
 70
     1
102
RTVSPropertyOp33
 70
     1
102
RTVSPropertyOp34
 70
     1
102
RTVSPropertyOp35
 70
     1
102
RTVSPropertyOp36
 70
     1
102
RTVSPropertyOp37
 70
     1
102
RTVSPropertyOp38
 70
     1
102
RTVSPropertyOp39
 70
     1
102
RTVSPropertyOp40
 70
     1
102
RTVSPropertyOp41
 70
     1
102
RTVSPropertyOp42
 70
     1
102
RTVSPropertyOp43
 70
     1
102
RTVSPropertyOp44
 70
     1
102
RTVSPropertyOp45
 70
     1
102
RTVSPropertyOp46
 70
     1
102
RTVSPropertyOp47
 70
     1
102
RTVSPropertyOp48
 70
     1
102
RTVSPropertyOp49
 70
     1
102
RTVSPropertyOp50
 70
     1
102
RTVSPropertyOp51
 70
     0
102
RTVSPropertyOp52
 70
     0
102
RTVSPropertyOp53
 70
     1
102
RTVSPropertyOp54
 70
     1
102
RTVSPropertyOp55
 70
     1
102
RTVSPropertyOp56
 70
     1
102
RTVSPropertyOp57
 70
     1
102
RTVSPropertyOp58
 70
     1
102
RTVSPropertyOp59
 70
     1
102
RTVSPropertyOp60
 70
     1
102
RTVSPropertyOp61
 70
     1
102
RTVSPropertyOp62
 70
     1
  0
XRECORD
  5
1622
102
{ACAD_REACTORS
330
1621
102
}
330
1621
100
AcDbXrecord
280
     1
102
RTVSPost2010Prop28
280
     0
102
RTVSPost2010PropOp28
 70
     1
102
RTVSPost2010Prop29
280
     1
102
RTVSPost2010PropOp29
 70
     1
102
RTVSPost2010Prop30
280
     1
102
RTVSPost2010PropOp30
 70
     1
102
RTVSPost2010Prop31
280
     0
102
RTVSPost2010PropOp31
 70
     1
102
RTVSPost2010Prop32
280
     0
102
RTVSPost2010PropOp32
 70
     1
102
RTVSPost2010Prop33
280
     0
102
RTVSPost2010PropOp33
 70
     1
102
RTVSPost2010Prop34
280
     0
102
RTVSPost2010PropOp34
 70
     1
102
RTVSPost2010Prop35
280
     0
102
RTVSPost2010PropOp35
 70
     1
102
RTVSPost2010Prop36
280
     0
102
RTVSPost2010PropOp36
 70
     1
102
RTVSPost2010Prop37
 90
       50
102
RTVSPost2010PropOp37
 70
     1
102
RTVSPost2010Prop38
140
0.0
102
RTVSPost2010PropOp38
 70
     1
102
RTVSPost2010Prop39
140
1.0
102
RTVSPost2010PropOp39
 70
     1
102
RTVSPost2010Prop40
 90
        0
102
RTVSPost2010PropOp40
 70
     1
102
RTVSPost2010Prop41ColorIndex
 90
       18
102
RTVSPost2010Prop41ColorRGB
 90
        0
102
RTVSPost2010PropOp41
 70
     1
102
RTVSPost2010Prop42
 90
       50
102
RTVSPost2010PropOp42
 70
     1
102
RTVSPost2010Prop43
 90
        3
102
RTVSPost2010PropOp43
 70
     1
102
RTVSPost2010Prop44ColorIndex
 90
        5
102
RTVSPost2010Prop44ColorRGB
 90
      255
102
RTVSPost2010PropOp44
 70
     1
102
RTVSPost2010Prop45
280
     0
102
RTVSPost2010PropOp45
 70
     1
102
RTVSPost2010Prop46
 90
       50
102
RTVSPost2010PropOp46
 70
     1
102
RTVSPost2010Prop47
 90
       50
102
RTVSPost2010PropOp47
 70
     1
102
RTVSPost2010Prop48
 90
       50
102
RTVSPost2010PropOp48
 70
     1
102
RTVSPost2010Prop49
280
     0
102
RTVSPost2010PropOp49
 70
     1
102
RTVSPost2010Prop50
 90
       50
102
RTVSPost2010PropOp50
 70
     1
102
RTVSPost2010Prop51ColorIndex
 90
      256
102
RTVSPost2010Prop51ColorRGB
 90
-16777216
102
RTVSPost2010PropOp51
 70
     0
102
RTVSPost2010Prop52
140
1.0
102
RTVSPost2010PropOp52
 70
     0
102
RTVSPost2010Prop53
 90
        2
102
RTVSPost2010PropOp53
 70
     1
102
RTVSPost2010Prop54
  1
strokes_ogs.tif
102
RTVSPost2010PropOp54
 70
     1
102
RTVSPost2010Prop55
280
     0
102
RTVSPost2010PropOp55
 70
     1
102
RTVSPost2010Prop56
140
1.0
102
RTVSPost2010PropOp56
 70
     1
102
RTVSPost2010Prop57
140
1.0
102
RTVSPost2010PropOp57
 70
     1
102
RTVSPropertyOp0
 70
     1
102
RTVSPropertyOp1
 70
     1
102
RTVSPropertyOp2
 70
     1
102
RTVSPropertyOp3
 70
     1
102
RTVSPropertyOp4
 70
     1
102
RTVSPropertyOp5
 70
     1
102
RTVSPropertyOp6
 70
     1
102
RTVSPropertyOp7
 70
     1
102
RTVSPropertyOp8
 70
     1
102
RTVSPropertyOp9
 70
     1
102
RTVSPropertyOp10
 70
     1
102
RTVSPropertyOp11
 70
     1
102
RTVSPropertyOp12
 70
     1
102
RTVSPropertyOp13
 70
     1
102
RTVSPropertyOp14
 70
     1
102
RTVSPropertyOp15
 70
     1
102
RTVSPropertyOp16
 70
     1
102
RTVSPropertyOp17
 70
     1
102
RTVSPropertyOp18
 70
     1
102
RTVSPropertyOp19
 70
     1
102
RTVSPropertyOp20
 70
     1
102
RTVSPropertyOp21
 70
     1
102
RTVSPropertyOp22
 70
     1
102
RTVSPropertyOp23
 70
     1
102
RTVSPropertyOp24
 70
     1
102
RTVSPropertyOp25
 70
     1
102
RTVSPropertyOp26
 70
     1
102
RTVSPropertyOp27
 70
     1
102
RTVSPropertyOp28
 70
     1
102
RTVSPropertyOp29
 70
     1
102
RTVSPropertyOp30
 70
     1
102
RTVSPropertyOp31
 70
     1
102
RTVSPropertyOp32
 70
     1
102
RTVSPropertyOp33
 70
     1
102
RTVSPropertyOp34
 70
     1
102
RTVSPropertyOp35
 70
     1
102
RTVSPropertyOp36
 70
     1
102
RTVSPropertyOp37
 70
     1
102
RTVSPropertyOp38
 70
     1
102
RTVSPropertyOp39
 70
     1
102
RTVSPropertyOp40
 70
     1
102
RTVSPropertyOp41
 70
     1
102
RTVSPropertyOp42
 70
     1
102
RTVSPropertyOp43
 70
     1
102
RTVSPropertyOp44
 70
     1
102
RTVSPropertyOp45
 70
     1
102
RTVSPropertyOp46
 70
     1
102
RTVSPropertyOp47
 70
     1
102
RTVSPropertyOp48
 70
     1
102
RTVSPropertyOp49
 70
     1
102
RTVSPropertyOp50
 70
     1
102
RTVSPropertyOp51
 70
     0
102
RTVSPropertyOp52
 70
     0
102
RTVSPropertyOp53
 70
     1
102
RTVSPropertyOp54
 70
     1
102
RTVSPropertyOp55
 70
     1
102
RTVSPropertyOp56
 70
     1
102
RTVSPropertyOp57
 70
     1
102
RTVSPropertyOp58
 70
     1
102
RTVSPropertyOp59
 70
     1
102
RTVSPropertyOp60
 70
     1
102
RTVSPropertyOp61
 70
     1
102
RTVSPropertyOp62
 70
     1
  0
XRECORD
  5
1624
102
{ACAD_REACTORS
330
1623
102
}
330
1623
100
AcDbXrecord
280
     1
102
RTVSPost2010Prop28
280
     0
102
RTVSPost2010PropOp28
 70
     1
102
RTVSPost2010Prop29
280
     1
102
RTVSPost2010PropOp29
 70
     1
102
RTVSPost2010Prop30
280
     1
102
RTVSPost2010PropOp30
 70
     1
102
RTVSPost2010Prop31
280
     0
102
RTVSPost2010PropOp31
 70
     1
102
RTVSPost2010Prop32
280
     0
102
RTVSPost2010PropOp32
 70
     1
102
RTVSPost2010Prop33
280
     0
102
RTVSPost2010PropOp33
 70
     1
102
RTVSPost2010Prop34
280
     0
102
RTVSPost2010PropOp34
 70
     1
102
RTVSPost2010Prop35
280
     0
102
RTVSPost2010PropOp35
 70
     1
102
RTVSPost2010Prop36
280
     0
102
RTVSPost2010PropOp36
 70
     1
102
RTVSPost2010Prop37
 90
       50
102
RTVSPost2010PropOp37
 70
     1
102
RTVSPost2010Prop38
140
0.0
102
RTVSPost2010PropOp38
 70
     1
102
RTVSPost2010Prop39
140
1.0
102
RTVSPost2010PropOp39
 70
     1
102
RTVSPost2010Prop40
 90
        0
102
RTVSPost2010PropOp40
 70
     1
102
RTVSPost2010Prop41ColorIndex
 90
       18
102
RTVSPost2010Prop41ColorRGB
 90
        0
102
RTVSPost2010PropOp41
 70
     1
102
RTVSPost2010Prop42
 90
       50
102
RTVSPost2010PropOp42
 70
     1
102
RTVSPost2010Prop43
 90
        3
102
RTVSPost2010PropOp43
 70
     1
102
RTVSPost2010Prop44ColorIndex
 90
        5
102
RTVSPost2010Prop44ColorRGB
 90
      255
102
RTVSPost2010PropOp44
 70
     1
102
RTVSPost2010Prop45
280
     0
102
RTVSPost2010PropOp45
 70
     1
102
RTVSPost2010Prop46
 90
       50
102
RTVSPost2010PropOp46
 70
     1
102
RTVSPost2010Prop47
 90
       50
102
RTVSPost2010PropOp47
 70
     1
102
RTVSPost2010Prop48
 90
       50
102
RTVSPost2010PropOp48
 70
     1
102
RTVSPost2010Prop49
280
     0
102
RTVSPost2010PropOp49
 70
     1
102
RTVSPost2010Prop50
 90
       50
102
RTVSPost2010PropOp50
 70
     1
102
RTVSPost2010Prop51ColorIndex
 90
      256
102
RTVSPost2010Prop51ColorRGB
 90
-16777216
102
RTVSPost2010PropOp51
 70
     0
102
RTVSPost2010Prop52
140
1.0
102
RTVSPost2010PropOp52
 70
     0
102
RTVSPost2010Prop53
 90
        2
102
RTVSPost2010PropOp53
 70
     1
102
RTVSPost2010Prop54
  1
strokes_ogs.tif
102
RTVSPost2010PropOp54
 70
     1
102
RTVSPost2010Prop55
280
     0
102
RTVSPost2010PropOp55
 70
     1
102
RTVSPost2010Prop56
140
1.0
102
RTVSPost2010PropOp56
 70
     1
102
RTVSPost2010Prop57
140
1.0
102
RTVSPost2010PropOp57
 70
     1
102
RTVSPropertyOp0
 70
     1
102
RTVSPropertyOp1
 70
     1
102
RTVSPropertyOp2
 70
     1
102
RTVSPropertyOp3
 70
     1
102
RTVSPropertyOp4
 70
     1
102
RTVSPropertyOp5
 70
     1
102
RTVSPropertyOp6
 70
     1
102
RTVSPropertyOp7
 70
     1
102
RTVSPropertyOp8
 70
     1
102
RTVSPropertyOp9
 70
     1
102
RTVSPropertyOp10
 70
     1
102
RTVSPropertyOp11
 70
     1
102
RTVSPropertyOp12
 70
     1
102
RTVSPropertyOp13
 70
     1
102
RTVSPropertyOp14
 70
     1
102
RTVSPropertyOp15
 70
     1
102
RTVSPropertyOp16
 70
     1
102
RTVSPropertyOp17
 70
     1
102
RTVSPropertyOp18
 70
     1
102
RTVSPropertyOp19
 70
     1
102
RTVSPropertyOp20
 70
     1
102
RTVSPropertyOp21
 70
     1
102
RTVSPropertyOp22
 70
     1
102
RTVSPropertyOp23
 70
     1
102
RTVSPropertyOp24
 70
     1
102
RTVSPropertyOp25
 70
     1
102
RTVSPropertyOp26
 70
     1
102
RTVSPropertyOp27
 70
     1
102
RTVSPropertyOp28
 70
     1
102
RTVSPropertyOp29
 70
     1
102
RTVSPropertyOp30
 70
     1
102
RTVSPropertyOp31
 70
     1
102
RTVSPropertyOp32
 70
     1
102
RTVSPropertyOp33
 70
     1
102
RTVSPropertyOp34
 70
     1
102
RTVSPropertyOp35
 70
     1
102
RTVSPropertyOp36
 70
     1
102
RTVSPropertyOp37
 70
     1
102
RTVSPropertyOp38
 70
     1
102
RTVSPropertyOp39
 70
     1
102
RTVSPropertyOp40
 70
     1
102
RTVSPropertyOp41
 70
     1
102
RTVSPropertyOp42
 70
     1
102
RTVSPropertyOp43
 70
     1
102
RTVSPropertyOp44
 70
     1
102
RTVSPropertyOp45
 70
     1
102
RTVSPropertyOp46
 70
     1
102
RTVSPropertyOp47
 70
     1
102
RTVSPropertyOp48
 70
     1
102
RTVSPropertyOp49
 70
     1
102
RTVSPropertyOp50
 70
     1
102
RTVSPropertyOp51
 70
     0
102
RTVSPropertyOp52
 70
     0
102
RTVSPropertyOp53
 70
     1
102
RTVSPropertyOp54
 70
     1
102
RTVSPropertyOp55
 70
     1
102
RTVSPropertyOp56
 70
     1
102
RTVSPropertyOp57
 70
     1
102
RTVSPropertyOp58
 70
     1
102
RTVSPropertyOp59
 70
     1
102
RTVSPropertyOp60
 70
     1
102
RTVSPropertyOp61
 70
     1
102
RTVSPropertyOp62
 70
     1
  0
XRECORD
  5
1626
102
{ACAD_REACTORS
330
1625
102
}
330
1625
100
AcDbXrecord
280
     1
102
RTVSPost2010Prop28
280
     0
102
RTVSPost2010PropOp28
 70
     1
102
RTVSPost2010Prop29
280
     1
102
RTVSPost2010PropOp29
 70
     1
102
RTVSPost2010Prop30
280
     1
102
RTVSPost2010PropOp30
 70
     1
102
RTVSPost2010Prop31
280
     0
102
RTVSPost2010PropOp31
 70
     1
102
RTVSPost2010Prop32
280
     0
102
RTVSPost2010PropOp32
 70
     1
102
RTVSPost2010Prop33
280
     0
102
RTVSPost2010PropOp33
 70
     1
102
RTVSPost2010Prop34
280
     0
102
RTVSPost2010PropOp34
 70
     1
102
RTVSPost2010Prop35
280
     0
102
RTVSPost2010PropOp35
 70
     1
102
RTVSPost2010Prop36
280
     0
102
RTVSPost2010PropOp36
 70
     1
102
RTVSPost2010Prop37
 90
       50
102
RTVSPost2010PropOp37
 70
     1
102
RTVSPost2010Prop38
140
0.0
102
RTVSPost2010PropOp38
 70
     1
102
RTVSPost2010Prop39
140
1.0
102
RTVSPost2010PropOp39
 70
     1
102
RTVSPost2010Prop40
 90
        0
102
RTVSPost2010PropOp40
 70
     1
102
RTVSPost2010Prop41ColorIndex
 90
       18
102
RTVSPost2010Prop41ColorRGB
 90
        0
102
RTVSPost2010PropOp41
 70
     1
102
RTVSPost2010Prop42
 90
       50
102
RTVSPost2010PropOp42
 70
     1
102
RTVSPost2010Prop43
 90
        3
102
RTVSPost2010PropOp43
 70
     1
102
RTVSPost2010Prop44ColorIndex
 90
        5
102
RTVSPost2010Prop44ColorRGB
 90
      255
102
RTVSPost2010PropOp44
 70
     1
102
RTVSPost2010Prop45
280
     0
102
RTVSPost2010PropOp45
 70
     1
102
RTVSPost2010Prop46
 90
       50
102
RTVSPost2010PropOp46
 70
     1
102
RTVSPost2010Prop47
 90
       50
102
RTVSPost2010PropOp47
 70
     1
102
RTVSPost2010Prop48
 90
       50
102
RTVSPost2010PropOp48
 70
     1
102
RTVSPost2010Prop49
280
     0
102
RTVSPost2010PropOp49
 70
     1
102
RTVSPost2010Prop50
 90
       50
102
RTVSPost2010PropOp50
 70
     1
102
RTVSPost2010Prop51ColorIndex
 90
      256
102
RTVSPost2010Prop51ColorRGB
 90
-16777216
102
RTVSPost2010PropOp51
 70
     0
102
RTVSPost2010Prop52
140
1.0
102
RTVSPost2010PropOp52
 70
     0
102
RTVSPost2010Prop53
 90
        2
102
RTVSPost2010PropOp53
 70
     1
102
RTVSPost2010Prop54
  1
strokes_ogs.tif
102
RTVSPost2010PropOp54
 70
     1
102
RTVSPost2010Prop55
280
     0
102
RTVSPost2010PropOp55
 70
     1
102
RTVSPost2010Prop56
140
1.0
102
RTVSPost2010PropOp56
 70
     1
102
RTVSPost2010Prop57
140
1.0
102
RTVSPost2010PropOp57
 70
     1
102
RTVSPropertyOp0
 70
     1
102
RTVSPropertyOp1
 70
     1
102
RTVSPropertyOp2
 70
     1
102
RTVSPropertyOp3
 70
     1
102
RTVSPropertyOp4
 70
     1
102
RTVSPropertyOp5
 70
     1
102
RTVSPropertyOp6
 70
     1
102
RTVSPropertyOp7
 70
     1
102
RTVSPropertyOp8
 70
     1
102
RTVSPropertyOp9
 70
     1
102
RTVSPropertyOp10
 70
     1
102
RTVSPropertyOp11
 70
     1
102
RTVSPropertyOp12
 70
     1
102
RTVSPropertyOp13
 70
     1
102
RTVSPropertyOp14
 70
     1
102
RTVSPropertyOp15
 70
     1
102
RTVSPropertyOp16
 70
     1
102
RTVSPropertyOp17
 70
     1
102
RTVSPropertyOp18
 70
     1
102
RTVSPropertyOp19
 70
     1
102
RTVSPropertyOp20
 70
     1
102
RTVSPropertyOp21
 70
     1
102
RTVSPropertyOp22
 70
     1
102
RTVSPropertyOp23
 70
     1
102
RTVSPropertyOp24
 70
     1
102
RTVSPropertyOp25
 70
     1
102
RTVSPropertyOp26
 70
     1
102
RTVSPropertyOp27
 70
     1
102
RTVSPropertyOp28
 70
     1
102
RTVSPropertyOp29
 70
     1
102
RTVSPropertyOp30
 70
     1
102
RTVSPropertyOp31
 70
     1
102
RTVSPropertyOp32
 70
     1
102
RTVSPropertyOp33
 70
     1
102
RTVSPropertyOp34
 70
     1
102
RTVSPropertyOp35
 70
     1
102
RTVSPropertyOp36
 70
     1
102
RTVSPropertyOp37
 70
     1
102
RTVSPropertyOp38
 70
     1
102
RTVSPropertyOp39
 70
     1
102
RTVSPropertyOp40
 70
     1
102
RTVSPropertyOp41
 70
     1
102
RTVSPropertyOp42
 70
     1
102
RTVSPropertyOp43
 70
     1
102
RTVSPropertyOp44
 70
     1
102
RTVSPropertyOp45
 70
     1
102
RTVSPropertyOp46
 70
     1
102
RTVSPropertyOp47
 70
     1
102
RTVSPropertyOp48
 70
     1
102
RTVSPropertyOp49
 70
     1
102
RTVSPropertyOp50
 70
     1
102
RTVSPropertyOp51
 70
     0
102
RTVSPropertyOp52
 70
     0
102
RTVSPropertyOp53
 70
     1
102
RTVSPropertyOp54
 70
     1
102
RTVSPropertyOp55
 70
     1
102
RTVSPropertyOp56
 70
     1
102
RTVSPropertyOp57
 70
     1
102
RTVSPropertyOp58
 70
     1
102
RTVSPropertyOp59
 70
     1
102
RTVSPropertyOp60
 70
     1
102
RTVSPropertyOp61
 70
     1
102
RTVSPropertyOp62
 70
     1
  0
XRECORD
  5
1643
102
{ACAD_REACTORS
330
1642
102
}
330
1642
100
AcDbXrecord
280
     1
102
RTVSPost2010Prop28
280
     0
102
RTVSPost2010PropOp28
 70
     1
102
RTVSPost2010Prop29
280
     1
102
RTVSPost2010PropOp29
 70
     1
102
RTVSPost2010Prop30
280
     1
102
RTVSPost2010PropOp30
 70
     1
102
RTVSPost2010Prop31
280
     0
102
RTVSPost2010PropOp31
 70
     1
102
RTVSPost2010Prop32
280
     0
102
RTVSPost2010PropOp32
 70
     1
102
RTVSPost2010Prop33
280
     0
102
RTVSPost2010PropOp33
 70
     1
102
RTVSPost2010Prop34
280
     0
102
RTVSPost2010PropOp34
 70
     1
102
RTVSPost2010Prop35
280
     0
102
RTVSPost2010PropOp35
 70
     1
102
RTVSPost2010Prop36
280
     0
102
RTVSPost2010PropOp36
 70
     1
102
RTVSPost2010Prop37
 90
       50
102
RTVSPost2010PropOp37
 70
     1
102
RTVSPost2010Prop38
140
0.0
102
RTVSPost2010PropOp38
 70
     1
102
RTVSPost2010Prop39
140
1.0
102
RTVSPost2010PropOp39
 70
     1
102
RTVSPost2010Prop40
 90
        0
102
RTVSPost2010PropOp40
 70
     1
102
RTVSPost2010Prop41ColorIndex
 90
       18
102
RTVSPost2010Prop41ColorRGB
 90
        0
102
RTVSPost2010PropOp41
 70
     1
102
RTVSPost2010Prop42
 90
       50
102
RTVSPost2010PropOp42
 70
     1
102
RTVSPost2010Prop43
 90
        3
102
RTVSPost2010PropOp43
 70
     1
102
RTVSPost2010Prop44ColorIndex
 90
        5
102
RTVSPost2010Prop44ColorRGB
 90
      255
102
RTVSPost2010PropOp44
 70
     1
102
RTVSPost2010Prop45
280
     0
102
RTVSPost2010PropOp45
 70
     1
102
RTVSPost2010Prop46
 90
       50
102
RTVSPost2010PropOp46
 70
     1
102
RTVSPost2010Prop47
 90
       50
102
RTVSPost2010PropOp47
 70
     1
102
RTVSPost2010Prop48
 90
       50
102
RTVSPost2010PropOp48
 70
     1
102
RTVSPost2010Prop49
280
     0
102
RTVSPost2010PropOp49
 70
     1
102
RTVSPost2010Prop50
 90
       50
102
RTVSPost2010PropOp50
 70
     1
102
RTVSPost2010Prop51ColorIndex
 90
      256
102
RTVSPost2010Prop51ColorRGB
 90
-16777216
102
RTVSPost2010PropOp51
 70
     0
102
RTVSPost2010Prop52
140
1.0
102
RTVSPost2010PropOp52
 70
     0
102
RTVSPost2010Prop53
 90
        2
102
RTVSPost2010PropOp53
 70
     1
102
RTVSPost2010Prop54
  1
strokes_ogs.tif
102
RTVSPost2010PropOp54
 70
     1
102
RTVSPost2010Prop55
280
     0
102
RTVSPost2010PropOp55
 70
     1
102
RTVSPost2010Prop56
140
1.0
102
RTVSPost2010PropOp56
 70
     1
102
RTVSPost2010Prop57
140
1.0
102
RTVSPost2010PropOp57
 70
     1
102
RTVSPropertyOp0
 70
     1
102
RTVSPropertyOp1
 70
     1
102
RTVSPropertyOp2
 70
     1
102
RTVSPropertyOp3
 70
     1
102
RTVSPropertyOp4
 70
     1
102
RTVSPropertyOp5
 70
     1
102
RTVSPropertyOp6
 70
     1
102
RTVSPropertyOp7
 70
     1
102
RTVSPropertyOp8
 70
     1
102
RTVSPropertyOp9
 70
     1
102
RTVSPropertyOp10
 70
     1
102
RTVSPropertyOp11
 70
     1
102
RTVSPropertyOp12
 70
     1
102
RTVSPropertyOp13
 70
     1
102
RTVSPropertyOp14
 70
     1
102
RTVSPropertyOp15
 70
     1
102
RTVSPropertyOp16
 70
     1
102
RTVSPropertyOp17
 70
     1
102
RTVSPropertyOp18
 70
     1
102
RTVSPropertyOp19
 70
     1
102
RTVSPropertyOp20
 70
     1
102
RTVSPropertyOp21
 70
     1
102
RTVSPropertyOp22
 70
     1
102
RTVSPropertyOp23
 70
     1
102
RTVSPropertyOp24
 70
     1
102
RTVSPropertyOp25
 70
     1
102
RTVSPropertyOp26
 70
     1
102
RTVSPropertyOp27
 70
     1
102
RTVSPropertyOp28
 70
     1
102
RTVSPropertyOp29
 70
     1
102
RTVSPropertyOp30
 70
     1
102
RTVSPropertyOp31
 70
     1
102
RTVSPropertyOp32
 70
     1
102
RTVSPropertyOp33
 70
     1
102
RTVSPropertyOp34
 70
     1
102
RTVSPropertyOp35
 70
     1
102
RTVSPropertyOp36
 70
     1
102
RTVSPropertyOp37
 70
     1
102
RTVSPropertyOp38
 70
     1
102
RTVSPropertyOp39
 70
     1
102
RTVSPropertyOp40
 70
     1
102
RTVSPropertyOp41
 70
     1
102
RTVSPropertyOp42
 70
     1
102
RTVSPropertyOp43
 70
     1
102
RTVSPropertyOp44
 70
     1
102
RTVSPropertyOp45
 70
     1
102
RTVSPropertyOp46
 70
     1
102
RTVSPropertyOp47
 70
     1
102
RTVSPropertyOp48
 70
     1
102
RTVSPropertyOp49
 70
     1
102
RTVSPropertyOp50
 70
     1
102
RTVSPropertyOp51
 70
     0
102
RTVSPropertyOp52
 70
     0
102
RTVSPropertyOp53
 70
     1
102
RTVSPropertyOp54
 70
     1
102
RTVSPropertyOp55
 70
     1
102
RTVSPropertyOp56
 70
     1
102
RTVSPropertyOp57
 70
     1
102
RTVSPropertyOp58
 70
     1
102
RTVSPropertyOp59
 70
     1
102
RTVSPropertyOp60
 70
     1
102
RTVSPropertyOp61
 70
     1
102
RTVSPropertyOp62
 70
     1
  0
XRECORD
  5
164F
102
{ACAD_REACTORS
330
164E
102
}
330
164E
100
AcDbXrecord
280
     1
102
RTVSPost2010Prop28
280
     0
102
RTVSPost2010PropOp28
 70
     0
102
RTVSPost2010Prop29
280
     1
102
RTVSPost2010PropOp29
 70
     0
102
RTVSPost2010Prop30
280
     1
102
RTVSPost2010PropOp30
 70
     0
102
RTVSPost2010Prop31
280
     0
102
RTVSPost2010PropOp31
 70
     0
102
RTVSPost2010Prop32
280
     0
102
RTVSPost2010PropOp32
 70
     0
102
RTVSPost2010Prop33
280
     0
102
RTVSPost2010PropOp33
 70
     0
102
RTVSPost2010Prop34
280
     0
102
RTVSPost2010PropOp34
 70
     0
102
RTVSPost2010Prop35
280
     0
102
RTVSPost2010PropOp35
 70
     0
102
RTVSPost2010Prop36
280
     0
102
RTVSPost2010PropOp36
 70
     0
102
RTVSPost2010Prop37
 90
       50
102
RTVSPost2010PropOp37
 70
     0
102
RTVSPost2010Prop38
140
0.0
102
RTVSPost2010PropOp38
 70
     0
102
RTVSPost2010Prop39
140
1.0
102
RTVSPost2010PropOp39
 70
     0
102
RTVSPost2010Prop40
 90
        0
102
RTVSPost2010PropOp40
 70
     0
102
RTVSPost2010Prop41ColorIndex
 90
       18
102
RTVSPost2010Prop41ColorRGB
 90
        0
102
RTVSPost2010PropOp41
 70
     0
102
RTVSPost2010Prop42
 90
       50
102
RTVSPost2010PropOp42
 70
     0
102
RTVSPost2010Prop43
 90
        3
102
RTVSPost2010PropOp43
 70
     0
102
RTVSPost2010Prop44ColorIndex
 90
        5
102
RTVSPost2010Prop44ColorRGB
 90
      255
102
RTVSPost2010PropOp44
 70
     0
102
RTVSPost2010Prop45
280
     0
102
RTVSPost2010PropOp45
 70
     0
102
RTVSPost2010Prop46
 90
       50
102
RTVSPost2010PropOp46
 70
     0
102
RTVSPost2010Prop47
 90
       50
102
RTVSPost2010PropOp47
 70
     0
102
RTVSPost2010Prop48
 90
       50
102
RTVSPost2010PropOp48
 70
     0
102
RTVSPost2010Prop49
280
     0
102
RTVSPost2010PropOp49
 70
     0
102
RTVSPost2010Prop50
 90
       50
102
RTVSPost2010PropOp50
 70
     0
102
RTVSPost2010Prop51ColorIndex
 90
      256
102
RTVSPost2010Prop51ColorRGB
 90
-16777216
102
RTVSPost2010PropOp51
 70
     0
102
RTVSPost2010Prop52
140
1.0
102
RTVSPost2010PropOp52
 70
     0
102
RTVSPost2010Prop53
 90
        2
102
RTVSPost2010PropOp53
 70
     0
102
RTVSPost2010Prop54
  1
strokes_ogs.tif
102
RTVSPost2010PropOp54
 70
     0
102
RTVSPost2010Prop55
280
     0
102
RTVSPost2010PropOp55
 70
     0
102
RTVSPost2010Prop56
140
1.0
102
RTVSPost2010PropOp56
 70
     0
102
RTVSPost2010Prop57
140
1.0
102
RTVSPost2010PropOp57
 70
     0
102
RTVSPropertyOp0
 70
     0
102
RTVSPropertyOp1
 70
     0
102
RTVSPropertyOp2
 70
     0
102
RTVSPropertyOp3
 70
     0
102
RTVSPropertyOp4
 70
     0
102
RTVSPropertyOp5
 70
     0
102
RTVSPropertyOp6
 70
     0
102
RTVSPropertyOp7
 70
     0
102
RTVSPropertyOp8
 70
     0
102
RTVSPropertyOp9
 70
     0
102
RTVSPropertyOp10
 70
     0
102
RTVSPropertyOp11
 70
     0
102
RTVSPropertyOp12
 70
     0
102
RTVSPropertyOp13
 70
     0
102
RTVSPropertyOp14
 70
     2
102
RTVSPropertyOp15
 70
     0
102
RTVSPropertyOp16
 70
     0
102
RTVSPropertyOp17
 70
     0
102
RTVSPropertyOp18
 70
     0
102
RTVSPropertyOp19
 70
     0
102
RTVSPropertyOp20
 70
     0
102
RTVSPropertyOp21
 70
     0
102
RTVSPropertyOp22
 70
     0
102
RTVSPropertyOp23
 70
     0
102
RTVSPropertyOp24
 70
     0
102
RTVSPropertyOp25
 70
     0
102
RTVSPropertyOp26
 70
     0
102
RTVSPropertyOp27
 70
     0
102
RTVSPropertyOp28
 70
     0
102
RTVSPropertyOp29
 70
     0
102
RTVSPropertyOp30
 70
     0
102
RTVSPropertyOp31
 70
     0
102
RTVSPropertyOp32
 70
     0
102
RTVSPropertyOp33
 70
     0
102
RTVSPropertyOp34
 70
     0
102
RTVSPropertyOp35
 70
     0
102
RTVSPropertyOp36
 70
     0
102
RTVSPropertyOp37
 70
     0
102
RTVSPropertyOp38
 70
     0
102
RTVSPropertyOp39
 70
     0
102
RTVSPropertyOp40
 70
     0
102
RTVSPropertyOp41
 70
     0
102
RTVSPropertyOp42
 70
     0
102
RTVSPropertyOp43
 70
     0
102
RTVSPropertyOp44
 70
     0
102
RTVSPropertyOp45
 70
     0
102
RTVSPropertyOp46
 70
     0
102
RTVSPropertyOp47
 70
     0
102
RTVSPropertyOp48
 70
     0
102
RTVSPropertyOp49
 70
     0
102
RTVSPropertyOp50
 70
     0
102
RTVSPropertyOp51
 70
     0
102
RTVSPropertyOp52
 70
     0
102
RTVSPropertyOp53
 70
     0
102
RTVSPropertyOp54
 70
     0
102
RTVSPropertyOp55
 70
     0
102
RTVSPropertyOp56
 70
     0
102
RTVSPropertyOp57
 70
     0
102
RTVSPropertyOp58
 70
     0
102
RTVSPropertyOp59
 70
     0
102
RTVSPropertyOp60
 70
     0
102
RTVSPropertyOp61
 70
     0
102
RTVSPropertyOp62
 70
     0
  0
XRECORD
  5
163A
102
{ACAD_REACTORS
330
1639
102
}
330
1639
100
AcDbXrecord
280
     1
102
RTVSPost2010Prop28
280
     0
102
RTVSPost2010PropOp28
 70
     1
102
RTVSPost2010Prop29
280
     1
102
RTVSPost2010PropOp29
 70
     1
102
RTVSPost2010Prop30
280
     1
102
RTVSPost2010PropOp30
 70
     1
102
RTVSPost2010Prop31
280
     0
102
RTVSPost2010PropOp31
 70
     1
102
RTVSPost2010Prop32
280
     0
102
RTVSPost2010PropOp32
 70
     1
102
RTVSPost2010Prop33
280
     0
102
RTVSPost2010PropOp33
 70
     1
102
RTVSPost2010Prop34
280
     0
102
RTVSPost2010PropOp34
 70
     1
102
RTVSPost2010Prop35
280
     0
102
RTVSPost2010PropOp35
 70
     1
102
RTVSPost2010Prop36
280
     0
102
RTVSPost2010PropOp36
 70
     1
102
RTVSPost2010Prop37
 90
       50
102
RTVSPost2010PropOp37
 70
     1
102
RTVSPost2010Prop38
140
0.0
102
RTVSPost2010PropOp38
 70
     1
102
RTVSPost2010Prop39
140
1.0
102
RTVSPost2010PropOp39
 70
     1
102
RTVSPost2010Prop40
 90
        0
102
RTVSPost2010PropOp40
 70
     1
102
RTVSPost2010Prop41ColorIndex
 90
       18
102
RTVSPost2010Prop41ColorRGB
 90
        0
102
RTVSPost2010PropOp41
 70
     1
102
RTVSPost2010Prop42
 90
       50
102
RTVSPost2010PropOp42
 70
     1
102
RTVSPost2010Prop43
 90
        3
102
RTVSPost2010PropOp43
 70
     1
102
RTVSPost2010Prop44ColorIndex
 90
        5
102
RTVSPost2010Prop44ColorRGB
 90
      255
102
RTVSPost2010PropOp44
 70
     1
102
RTVSPost2010Prop45
280
     0
102
RTVSPost2010PropOp45
 70
     1
102
RTVSPost2010Prop46
 90
       50
102
RTVSPost2010PropOp46
 70
     1
102
RTVSPost2010Prop47
 90
       50
102
RTVSPost2010PropOp47
 70
     1
102
RTVSPost2010Prop48
 90
       50
102
RTVSPost2010PropOp48
 70
     1
102
RTVSPost2010Prop49
280
     0
102
RTVSPost2010PropOp49
 70
     1
102
RTVSPost2010Prop50
 90
       50
102
RTVSPost2010PropOp50
 70
     1
102
RTVSPost2010Prop51ColorIndex
 90
      256
102
RTVSPost2010Prop51ColorRGB
 90
-16777216
102
RTVSPost2010PropOp51
 70
     0
102
RTVSPost2010Prop52
140
1.0
102
RTVSPost2010PropOp52
 70
     0
102
RTVSPost2010Prop53
 90
        2
102
RTVSPost2010PropOp53
 70
     1
102
RTVSPost2010Prop54
  1
strokes_ogs.tif
102
RTVSPost2010PropOp54
 70
     1
102
RTVSPost2010Prop55
280
     0
102
RTVSPost2010PropOp55
 70
     1
102
RTVSPost2010Prop56
140
1.0
102
RTVSPost2010PropOp56
 70
     1
102
RTVSPost2010Prop57
140
1.0
102
RTVSPost2010PropOp57
 70
     1
102
RTVSPropertyOp0
 70
     1
102
RTVSPropertyOp1
 70
     1
102
RTVSPropertyOp2
 70
     1
102
RTVSPropertyOp3
 70
     1
102
RTVSPropertyOp4
 70
     1
102
RTVSPropertyOp5
 70
     1
102
RTVSPropertyOp6
 70
     1
102
RTVSPropertyOp7
 70
     1
102
RTVSPropertyOp8
 70
     1
102
RTVSPropertyOp9
 70
     1
102
RTVSPropertyOp10
 70
     1
102
RTVSPropertyOp11
 70
     1
102
RTVSPropertyOp12
 70
     1
102
RTVSPropertyOp13
 70
     1
102
RTVSPropertyOp14
 70
     1
102
RTVSPropertyOp15
 70
     1
102
RTVSPropertyOp16
 70
     1
102
RTVSPropertyOp17
 70
     1
102
RTVSPropertyOp18
 70
     1
102
RTVSPropertyOp19
 70
     1
102
RTVSPropertyOp20
 70
     1
102
RTVSPropertyOp21
 70
     1
102
RTVSPropertyOp22
 70
     1
102
RTVSPropertyOp23
 70
     1
102
RTVSPropertyOp24
 70
     1
102
RTVSPropertyOp25
 70
     1
102
RTVSPropertyOp26
 70
     1
102
RTVSPropertyOp27
 70
     1
102
RTVSPropertyOp28
 70
     1
102
RTVSPropertyOp29
 70
     1
102
RTVSPropertyOp30
 70
     1
102
RTVSPropertyOp31
 70
     1
102
RTVSPropertyOp32
 70
     1
102
RTVSPropertyOp33
 70
     1
102
RTVSPropertyOp34
 70
     1
102
RTVSPropertyOp35
 70
     1
102
RTVSPropertyOp36
 70
     1
102
RTVSPropertyOp37
 70
     1
102
RTVSPropertyOp38
 70
     1
102
RTVSPropertyOp39
 70
     1
102
RTVSPropertyOp40
 70
     1
102
RTVSPropertyOp41
 70
     1
102
RTVSPropertyOp42
 70
     1
102
RTVSPropertyOp43
 70
     1
102
RTVSPropertyOp44
 70
     1
102
RTVSPropertyOp45
 70
     1
102
RTVSPropertyOp46
 70
     1
102
RTVSPropertyOp47
 70
     1
102
RTVSPropertyOp48
 70
     1
102
RTVSPropertyOp49
 70
     1
102
RTVSPropertyOp50
 70
     1
102
RTVSPropertyOp51
 70
     0
102
RTVSPropertyOp52
 70
     0
102
RTVSPropertyOp53
 70
     1
102
RTVSPropertyOp54
 70
     1
102
RTVSPropertyOp55
 70
     1
102
RTVSPropertyOp56
 70
     1
102
RTVSPropertyOp57
 70
     1
102
RTVSPropertyOp58
 70
     1
102
RTVSPropertyOp59
 70
     1
102
RTVSPropertyOp60
 70
     1
102
RTVSPropertyOp61
 70
     1
102
RTVSPropertyOp62
 70
     1
  0
XRECORD
  5
1651
102
{ACAD_REACTORS
330
1650
102
}
330
1650
100
AcDbXrecord
280
     1
102
RTVSPost2010Prop28
280
     0
102
RTVSPost2010PropOp28
 70
     0
102
RTVSPost2010Prop29
280
     1
102
RTVSPost2010PropOp29
 70
     0
102
RTVSPost2010Prop30
280
     1
102
RTVSPost2010PropOp30
 70
     0
102
RTVSPost2010Prop31
280
     0
102
RTVSPost2010PropOp31
 70
     0
102
RTVSPost2010Prop32
280
     0
102
RTVSPost2010PropOp32
 70
     0
102
RTVSPost2010Prop33
280
     0
102
RTVSPost2010PropOp33
 70
     0
102
RTVSPost2010Prop34
280
     0
102
RTVSPost2010PropOp34
 70
     0
102
RTVSPost2010Prop35
280
     0
102
RTVSPost2010PropOp35
 70
     0
102
RTVSPost2010Prop36
280
     0
102
RTVSPost2010PropOp36
 70
     0
102
RTVSPost2010Prop37
 90
       50
102
RTVSPost2010PropOp37
 70
     0
102
RTVSPost2010Prop38
140
0.0
102
RTVSPost2010PropOp38
 70
     0
102
RTVSPost2010Prop39
140
1.0
102
RTVSPost2010PropOp39
 70
     0
102
RTVSPost2010Prop40
 90
        0
102
RTVSPost2010PropOp40
 70
     0
102
RTVSPost2010Prop41ColorIndex
 90
       18
102
RTVSPost2010Prop41ColorRGB
 90
        0
102
RTVSPost2010PropOp41
 70
     0
102
RTVSPost2010Prop42
 90
       50
102
RTVSPost2010PropOp42
 70
     0
102
RTVSPost2010Prop43
 90
        3
102
RTVSPost2010PropOp43
 70
     0
102
RTVSPost2010Prop44ColorIndex
 90
        5
102
RTVSPost2010Prop44ColorRGB
 90
      255
102
RTVSPost2010PropOp44
 70
     0
102
RTVSPost2010Prop45
280
     0
102
RTVSPost2010PropOp45
 70
     0
102
RTVSPost2010Prop46
 90
       50
102
RTVSPost2010PropOp46
 70
     0
102
RTVSPost2010Prop47
 90
       50
102
RTVSPost2010PropOp47
 70
     0
102
RTVSPost2010Prop48
 90
       50
102
RTVSPost2010PropOp48
 70
     0
102
RTVSPost2010Prop49
280
     0
102
RTVSPost2010PropOp49
 70
     0
102
RTVSPost2010Prop50
 90
       50
102
RTVSPost2010PropOp50
 70
     0
102
RTVSPost2010Prop51ColorIndex
 90
      256
102
RTVSPost2010Prop51ColorRGB
 90
-16777216
102
RTVSPost2010PropOp51
 70
     0
102
RTVSPost2010Prop52
140
1.0
102
RTVSPost2010PropOp52
 70
     0
102
RTVSPost2010Prop53
 90
        2
102
RTVSPost2010PropOp53
 70
     0
102
RTVSPost2010Prop54
  1
strokes_ogs.tif
102
RTVSPost2010PropOp54
 70
     0
102
RTVSPost2010Prop55
280
     0
102
RTVSPost2010PropOp55
 70
     0
102
RTVSPost2010Prop56
140
1.0
102
RTVSPost2010PropOp56
 70
     0
102
RTVSPost2010Prop57
140
1.0
102
RTVSPost2010PropOp57
 70
     0
102
RTVSPropertyOp0
 70
     0
102
RTVSPropertyOp1
 70
     0
102
RTVSPropertyOp2
 70
     0
102
RTVSPropertyOp3
 70
     0
102
RTVSPropertyOp4
 70
     0
102
RTVSPropertyOp5
 70
     0
102
RTVSPropertyOp6
 70
     0
102
RTVSPropertyOp7
 70
     0
102
RTVSPropertyOp8
 70
     0
102
RTVSPropertyOp9
 70
     0
102
RTVSPropertyOp10
 70
     0
102
RTVSPropertyOp11
 70
     0
102
RTVSPropertyOp12
 70
     0
102
RTVSPropertyOp13
 70
     0
102
RTVSPropertyOp14
 70
     2
102
RTVSPropertyOp15
 70
     0
102
RTVSPropertyOp16
 70
     0
102
RTVSPropertyOp17
 70
     0
102
RTVSPropertyOp18
 70
     0
102
RTVSPropertyOp19
 70
     0
102
RTVSPropertyOp20
 70
     0
102
RTVSPropertyOp21
 70
     0
102
RTVSPropertyOp22
 70
     0
102
RTVSPropertyOp23
 70
     0
102
RTVSPropertyOp24
 70
     0
102
RTVSPropertyOp25
 70
     0
102
RTVSPropertyOp26
 70
     0
102
RTVSPropertyOp27
 70
     0
102
RTVSPropertyOp28
 70
     0
102
RTVSPropertyOp29
 70
     0
102
RTVSPropertyOp30
 70
     0
102
RTVSPropertyOp31
 70
     0
102
RTVSPropertyOp32
 70
     0
102
RTVSPropertyOp33
 70
     0
102
RTVSPropertyOp34
 70
     0
102
RTVSPropertyOp35
 70
     0
102
RTVSPropertyOp36
 70
     0
102
RTVSPropertyOp37
 70
     0
102
RTVSPropertyOp38
 70
     0
102
RTVSPropertyOp39
 70
     0
102
RTVSPropertyOp40
 70
     0
102
RTVSPropertyOp41
 70
     0
102
RTVSPropertyOp42
 70
     0
102
RTVSPropertyOp43
 70
     0
102
RTVSPropertyOp44
 70
     0
102
RTVSPropertyOp45
 70
     0
102
RTVSPropertyOp46
 70
     0
102
RTVSPropertyOp47
 70
     0
102
RTVSPropertyOp48
 70
     0
102
RTVSPropertyOp49
 70
     0
102
RTVSPropertyOp50
 70
     0
102
RTVSPropertyOp51
 70
     0
102
RTVSPropertyOp52
 70
     0
102
RTVSPropertyOp53
 70
     0
102
RTVSPropertyOp54
 70
     0
102
RTVSPropertyOp55
 70
     0
102
RTVSPropertyOp56
 70
     0
102
RTVSPropertyOp57
 70
     0
102
RTVSPropertyOp58
 70
     0
102
RTVSPropertyOp59
 70
     0
102
RTVSPropertyOp60
 70
     0
102
RTVSPropertyOp61
 70
     0
102
RTVSPropertyOp62
 70
     0
  0
XRECORD
  5
1632
102
{ACAD_REACTORS
330
1631
102
}
330
1631
100
AcDbXrecord
280
     1
102
RTVSPost2010Prop28
280
     0
102
RTVSPost2010PropOp28
 70
     1
102
RTVSPost2010Prop29
280
     1
102
RTVSPost2010PropOp29
 70
     1
102
RTVSPost2010Prop30
280
     1
102
RTVSPost2010PropOp30
 70
     1
102
RTVSPost2010Prop31
280
     0
102
RTVSPost2010PropOp31
 70
     1
102
RTVSPost2010Prop32
280
     0
102
RTVSPost2010PropOp32
 70
     1
102
RTVSPost2010Prop33
280
     0
102
RTVSPost2010PropOp33
 70
     1
102
RTVSPost2010Prop34
280
     0
102
RTVSPost2010PropOp34
 70
     1
102
RTVSPost2010Prop35
280
     0
102
RTVSPost2010PropOp35
 70
     1
102
RTVSPost2010Prop36
280
     0
102
RTVSPost2010PropOp36
 70
     1
102
RTVSPost2010Prop37
 90
       50
102
RTVSPost2010PropOp37
 70
     1
102
RTVSPost2010Prop38
140
0.0
102
RTVSPost2010PropOp38
 70
     1
102
RTVSPost2010Prop39
140
1.0
102
RTVSPost2010PropOp39
 70
     1
102
RTVSPost2010Prop40
 90
        0
102
RTVSPost2010PropOp40
 70
     1
102
RTVSPost2010Prop41ColorIndex
 90
       18
102
RTVSPost2010Prop41ColorRGB
 90
        0
102
RTVSPost2010PropOp41
 70
     1
102
RTVSPost2010Prop42
 90
       50
102
RTVSPost2010PropOp42
 70
     1
102
RTVSPost2010Prop43
 90
        3
102
RTVSPost2010PropOp43
 70
     1
102
RTVSPost2010Prop44ColorIndex
 90
        5
102
RTVSPost2010Prop44ColorRGB
 90
      255
102
RTVSPost2010PropOp44
 70
     1
102
RTVSPost2010Prop45
280
     0
102
RTVSPost2010PropOp45
 70
     1
102
RTVSPost2010Prop46
 90
       50
102
RTVSPost2010PropOp46
 70
     1
102
RTVSPost2010Prop47
 90
       50
102
RTVSPost2010PropOp47
 70
     1
102
RTVSPost2010Prop48
 90
       50
102
RTVSPost2010PropOp48
 70
     1
102
RTVSPost2010Prop49
280
     0
102
RTVSPost2010PropOp49
 70
     1
102
RTVSPost2010Prop50
 90
       50
102
RTVSPost2010PropOp50
 70
     1
102
RTVSPost2010Prop51ColorIndex
 90
      256
102
RTVSPost2010Prop51ColorRGB
 90
-16777216
102
RTVSPost2010PropOp51
 70
     0
102
RTVSPost2010Prop52
140
1.0
102
RTVSPost2010PropOp52
 70
     0
102
RTVSPost2010Prop53
 90
        2
102
RTVSPost2010PropOp53
 70
     1
102
RTVSPost2010Prop54
  1
strokes_ogs.tif
102
RTVSPost2010PropOp54
 70
     1
102
RTVSPost2010Prop55
280
     0
102
RTVSPost2010PropOp55
 70
     1
102
RTVSPost2010Prop56
140
1.0
102
RTVSPost2010PropOp56
 70
     1
102
RTVSPost2010Prop57
140
1.0
102
RTVSPost2010PropOp57
 70
     1
102
RTVSPropertyOp0
 70
     1
102
RTVSPropertyOp1
 70
     1
102
RTVSPropertyOp2
 70
     1
102
RTVSPropertyOp3
 70
     1
102
RTVSPropertyOp4
 70
     1
102
RTVSPropertyOp5
 70
     1
102
RTVSPropertyOp6
 70
     1
102
RTVSPropertyOp7
 70
     1
102
RTVSPropertyOp8
 70
     1
102
RTVSPropertyOp9
 70
     1
102
RTVSPropertyOp10
 70
     1
102
RTVSPropertyOp11
 70
     1
102
RTVSPropertyOp12
 70
     1
102
RTVSPropertyOp13
 70
     1
102
RTVSPropertyOp14
 70
     1
102
RTVSPropertyOp15
 70
     1
102
RTVSPropertyOp16
 70
     1
102
RTVSPropertyOp17
 70
     1
102
RTVSPropertyOp18
 70
     1
102
RTVSPropertyOp19
 70
     1
102
RTVSPropertyOp20
 70
     1
102
RTVSPropertyOp21
 70
     1
102
RTVSPropertyOp22
 70
     1
102
RTVSPropertyOp23
 70
     1
102
RTVSPropertyOp24
 70
     1
102
RTVSPropertyOp25
 70
     1
102
RTVSPropertyOp26
 70
     1
102
RTVSPropertyOp27
 70
     1
102
RTVSPropertyOp28
 70
     1
102
RTVSPropertyOp29
 70
     1
102
RTVSPropertyOp30
 70
     1
102
RTVSPropertyOp31
 70
     1
102
RTVSPropertyOp32
 70
     1
102
RTVSPropertyOp33
 70
     1
102
RTVSPropertyOp34
 70
     1
102
RTVSPropertyOp35
 70
     1
102
RTVSPropertyOp36
 70
     1
102
RTVSPropertyOp37
 70
     1
102
RTVSPropertyOp38
 70
     1
102
RTVSPropertyOp39
 70
     1
102
RTVSPropertyOp40
 70
     1
102
RTVSPropertyOp41
 70
     1
102
RTVSPropertyOp42
 70
     1
102
RTVSPropertyOp43
 70
     1
102
RTVSPropertyOp44
 70
     1
102
RTVSPropertyOp45
 70
     1
102
RTVSPropertyOp46
 70
     1
102
RTVSPropertyOp47
 70
     1
102
RTVSPropertyOp48
 70
     1
102
RTVSPropertyOp49
 70
     1
102
RTVSPropertyOp50
 70
     1
102
RTVSPropertyOp51
 70
     0
102
RTVSPropertyOp52
 70
     0
102
RTVSPropertyOp53
 70
     1
102
RTVSPropertyOp54
 70
     1
102
RTVSPropertyOp55
 70
     1
102
RTVSPropertyOp56
 70
     1
102
RTVSPropertyOp57
 70
     1
102
RTVSPropertyOp58
 70
     1
102
RTVSPropertyOp59
 70
     1
102
RTVSPropertyOp60
 70
     1
102
RTVSPropertyOp61
 70
     1
102
RTVSPropertyOp62
 70
     1
  0
XRECORD
  5
164D
102
{ACAD_REACTORS
330
164C
102
}
330
164C
100
AcDbXrecord
280
     1
102
RTVSPost2010Prop28
280
     0
102
RTVSPost2010PropOp28
 70
     1
102
RTVSPost2010Prop29
280
     1
102
RTVSPost2010PropOp29
 70
     1
102
RTVSPost2010Prop30
280
     1
102
RTVSPost2010PropOp30
 70
     1
102
RTVSPost2010Prop31
280
     0
102
RTVSPost2010PropOp31
 70
     1
102
RTVSPost2010Prop32
280
     0
102
RTVSPost2010PropOp32
 70
     1
102
RTVSPost2010Prop33
280
     0
102
RTVSPost2010PropOp33
 70
     1
102
RTVSPost2010Prop34
280
     0
102
RTVSPost2010PropOp34
 70
     1
102
RTVSPost2010Prop35
280
     0
102
RTVSPost2010PropOp35
 70
     1
102
RTVSPost2010Prop36
280
     0
102
RTVSPost2010PropOp36
 70
     1
102
RTVSPost2010Prop37
 90
       50
102
RTVSPost2010PropOp37
 70
     1
102
RTVSPost2010Prop38
140
0.0
102
RTVSPost2010PropOp38
 70
     1
102
RTVSPost2010Prop39
140
1.0
102
RTVSPost2010PropOp39
 70
     1
102
RTVSPost2010Prop40
 90
        0
102
RTVSPost2010PropOp40
 70
     1
102
RTVSPost2010Prop41ColorIndex
 90
       18
102
RTVSPost2010Prop41ColorRGB
 90
        0
102
RTVSPost2010PropOp41
 70
     1
102
RTVSPost2010Prop42
 90
       50
102
RTVSPost2010PropOp42
 70
     1
102
RTVSPost2010Prop43
 90
        3
102
RTVSPost2010PropOp43
 70
     1
102
RTVSPost2010Prop44ColorIndex
 90
        5
102
RTVSPost2010Prop44ColorRGB
 90
      255
102
RTVSPost2010PropOp44
 70
     1
102
RTVSPost2010Prop45
280
     0
102
RTVSPost2010PropOp45
 70
     1
102
RTVSPost2010Prop46
 90
       50
102
RTVSPost2010PropOp46
 70
     1
102
RTVSPost2010Prop47
 90
       50
102
RTVSPost2010PropOp47
 70
     1
102
RTVSPost2010Prop48
 90
       50
102
RTVSPost2010PropOp48
 70
     1
102
RTVSPost2010Prop49
280
     0
102
RTVSPost2010PropOp49
 70
     1
102
RTVSPost2010Prop50
 90
       50
102
RTVSPost2010PropOp50
 70
     1
102
RTVSPost2010Prop51ColorIndex
 90
      256
102
RTVSPost2010Prop51ColorRGB
 90
-16777216
102
RTVSPost2010PropOp51
 70
     0
102
RTVSPost2010Prop52
140
1.0
102
RTVSPost2010PropOp52
 70
     0
102
RTVSPost2010Prop53
 90
        2
102
RTVSPost2010PropOp53
 70
     1
102
RTVSPost2010Prop54
  1
strokes_ogs.tif
102
RTVSPost2010PropOp54
 70
     1
102
RTVSPost2010Prop55
280
     0
102
RTVSPost2010PropOp55
 70
     1
102
RTVSPost2010Prop56
140
1.0
102
RTVSPost2010PropOp56
 70
     1
102
RTVSPost2010Prop57
140
1.0
102
RTVSPost2010PropOp57
 70
     1
102
RTVSPropertyOp0
 70
     1
102
RTVSPropertyOp1
 70
     1
102
RTVSPropertyOp2
 70
     1
102
RTVSPropertyOp3
 70
     1
102
RTVSPropertyOp4
 70
     1
102
RTVSPropertyOp5
 70
     1
102
RTVSPropertyOp6
 70
     1
102
RTVSPropertyOp7
 70
     1
102
RTVSPropertyOp8
 70
     1
102
RTVSPropertyOp9
 70
     1
102
RTVSPropertyOp10
 70
     1
102
RTVSPropertyOp11
 70
     1
102
RTVSPropertyOp12
 70
     1
102
RTVSPropertyOp13
 70
     1
102
RTVSPropertyOp14
 70
     1
102
RTVSPropertyOp15
 70
     1
102
RTVSPropertyOp16
 70
     1
102
RTVSPropertyOp17
 70
     1
102
RTVSPropertyOp18
 70
     1
102
RTVSPropertyOp19
 70
     1
102
RTVSPropertyOp20
 70
     1
102
RTVSPropertyOp21
 70
     1
102
RTVSPropertyOp22
 70
     1
102
RTVSPropertyOp23
 70
     1
102
RTVSPropertyOp24
 70
     1
102
RTVSPropertyOp25
 70
     1
102
RTVSPropertyOp26
 70
     1
102
RTVSPropertyOp27
 70
     1
102
RTVSPropertyOp28
 70
     1
102
RTVSPropertyOp29
 70
     1
102
RTVSPropertyOp30
 70
     1
102
RTVSPropertyOp31
 70
     1
102
RTVSPropertyOp32
 70
     1
102
RTVSPropertyOp33
 70
     1
102
RTVSPropertyOp34
 70
     1
102
RTVSPropertyOp35
 70
     1
102
RTVSPropertyOp36
 70
     1
102
RTVSPropertyOp37
 70
     1
102
RTVSPropertyOp38
 70
     1
102
RTVSPropertyOp39
 70
     1
102
RTVSPropertyOp40
 70
     1
102
RTVSPropertyOp41
 70
     1
102
RTVSPropertyOp42
 70
     1
102
RTVSPropertyOp43
 70
     1
102
RTVSPropertyOp44
 70
     1
102
RTVSPropertyOp45
 70
     1
102
RTVSPropertyOp46
 70
     1
102
RTVSPropertyOp47
 70
     1
102
RTVSPropertyOp48
 70
     1
102
RTVSPropertyOp49
 70
     1
102
RTVSPropertyOp50
 70
     1
102
RTVSPropertyOp51
 70
     0
102
RTVSPropertyOp52
 70
     0
102
RTVSPropertyOp53
 70
     1
102
RTVSPropertyOp54
 70
     1
102
RTVSPropertyOp55
 70
     1
102
RTVSPropertyOp56
 70
     1
102
RTVSPropertyOp57
 70
     1
102
RTVSPropertyOp58
 70
     1
102
RTVSPropertyOp59
 70
     1
102
RTVSPropertyOp60
 70
     1
102
RTVSPropertyOp61
 70
     1
102
RTVSPropertyOp62
 70
     1
  0
XRECORD
  5
164B
102
{ACAD_REACTORS
330
164A
102
}
330
164A
100
AcDbXrecord
280
     1
102
RTVSPost2010Prop28
280
     0
102
RTVSPost2010PropOp28
 70
     1
102
RTVSPost2010Prop29
280
     1
102
RTVSPost2010PropOp29
 70
     1
102
RTVSPost2010Prop30
280
     1
102
RTVSPost2010PropOp30
 70
     1
102
RTVSPost2010Prop31
280
     0
102
RTVSPost2010PropOp31
 70
     1
102
RTVSPost2010Prop32
280
     0
102
RTVSPost2010PropOp32
 70
     1
102
RTVSPost2010Prop33
280
     0
102
RTVSPost2010PropOp33
 70
     1
102
RTVSPost2010Prop34
280
     0
102
RTVSPost2010PropOp34
 70
     1
102
RTVSPost2010Prop35
280
     0
102
RTVSPost2010PropOp35
 70
     1
102
RTVSPost2010Prop36
280
     0
102
RTVSPost2010PropOp36
 70
     1
102
RTVSPost2010Prop37
 90
       50
102
RTVSPost2010PropOp37
 70
     1
102
RTVSPost2010Prop38
140
0.0
102
RTVSPost2010PropOp38
 70
     1
102
RTVSPost2010Prop39
140
1.0
102
RTVSPost2010PropOp39
 70
     1
102
RTVSPost2010Prop40
 90
        0
102
RTVSPost2010PropOp40
 70
     1
102
RTVSPost2010Prop41ColorIndex
 90
       18
102
RTVSPost2010Prop41ColorRGB
 90
        0
102
RTVSPost2010PropOp41
 70
     1
102
RTVSPost2010Prop42
 90
       50
102
RTVSPost2010PropOp42
 70
     1
102
RTVSPost2010Prop43
 90
        3
102
RTVSPost2010PropOp43
 70
     1
102
RTVSPost2010Prop44ColorIndex
 90
        5
102
RTVSPost2010Prop44ColorRGB
 90
      255
102
RTVSPost2010PropOp44
 70
     1
102
RTVSPost2010Prop45
280
     0
102
RTVSPost2010PropOp45
 70
     1
102
RTVSPost2010Prop46
 90
       50
102
RTVSPost2010PropOp46
 70
     1
102
RTVSPost2010Prop47
 90
       50
102
RTVSPost2010PropOp47
 70
     1
102
RTVSPost2010Prop48
 90
       50
102
RTVSPost2010PropOp48
 70
     1
102
RTVSPost2010Prop49
280
     0
102
RTVSPost2010PropOp49
 70
     1
102
RTVSPost2010Prop50
 90
       50
102
RTVSPost2010PropOp50
 70
     1
102
RTVSPost2010Prop51ColorIndex
 90
      256
102
RTVSPost2010Prop51ColorRGB
 90
-16777216
102
RTVSPost2010PropOp51
 70
     0
102
RTVSPost2010Prop52
140
1.0
102
RTVSPost2010PropOp52
 70
     0
102
RTVSPost2010Prop53
 90
        2
102
RTVSPost2010PropOp53
 70
     1
102
RTVSPost2010Prop54
  1
strokes_ogs.tif
102
RTVSPost2010PropOp54
 70
     1
102
RTVSPost2010Prop55
280
     0
102
RTVSPost2010PropOp55
 70
     1
102
RTVSPost2010Prop56
140
1.0
102
RTVSPost2010PropOp56
 70
     1
102
RTVSPost2010Prop57
140
1.0
102
RTVSPost2010PropOp57
 70
     1
102
RTVSPropertyOp0
 70
     1
102
RTVSPropertyOp1
 70
     1
102
RTVSPropertyOp2
 70
     1
102
RTVSPropertyOp3
 70
     1
102
RTVSPropertyOp4
 70
     1
102
RTVSPropertyOp5
 70
     1
102
RTVSPropertyOp6
 70
     1
102
RTVSPropertyOp7
 70
     1
102
RTVSPropertyOp8
 70
     1
102
RTVSPropertyOp9
 70
     1
102
RTVSPropertyOp10
 70
     1
102
RTVSPropertyOp11
 70
     1
102
RTVSPropertyOp12
 70
     1
102
RTVSPropertyOp13
 70
     1
102
RTVSPropertyOp14
 70
     1
102
RTVSPropertyOp15
 70
     1
102
RTVSPropertyOp16
 70
     1
102
RTVSPropertyOp17
 70
     1
102
RTVSPropertyOp18
 70
     1
102
RTVSPropertyOp19
 70
     1
102
RTVSPropertyOp20
 70
     1
102
RTVSPropertyOp21
 70
     1
102
RTVSPropertyOp22
 70
     1
102
RTVSPropertyOp23
 70
     1
102
RTVSPropertyOp24
 70
     1
102
RTVSPropertyOp25
 70
     1
102
RTVSPropertyOp26
 70
     1
102
RTVSPropertyOp27
 70
     1
102
RTVSPropertyOp28
 70
     1
102
RTVSPropertyOp29
 70
     1
102
RTVSPropertyOp30
 70
     1
102
RTVSPropertyOp31
 70
     1
102
RTVSPropertyOp32
 70
     1
102
RTVSPropertyOp33
 70
     1
102
RTVSPropertyOp34
 70
     1
102
RTVSPropertyOp35
 70
     1
102
RTVSPropertyOp36
 70
     1
102
RTVSPropertyOp37
 70
     1
102
RTVSPropertyOp38
 70
     1
102
RTVSPropertyOp39
 70
     1
102
RTVSPropertyOp40
 70
     1
102
RTVSPropertyOp41
 70
     1
102
RTVSPropertyOp42
 70
     1
102
RTVSPropertyOp43
 70
     1
102
RTVSPropertyOp44
 70
     1
102
RTVSPropertyOp45
 70
     1
102
RTVSPropertyOp46
 70
     1
102
RTVSPropertyOp47
 70
     1
102
RTVSPropertyOp48
 70
     1
102
RTVSPropertyOp49
 70
     1
102
RTVSPropertyOp50
 70
     1
102
RTVSPropertyOp51
 70
     0
102
RTVSPropertyOp52
 70
     0
102
RTVSPropertyOp53
 70
     1
102
RTVSPropertyOp54
 70
     1
102
RTVSPropertyOp55
 70
     1
102
RTVSPropertyOp56
 70
     1
102
RTVSPropertyOp57
 70
     1
102
RTVSPropertyOp58
 70
     1
102
RTVSPropertyOp59
 70
     1
102
RTVSPropertyOp60
 70
     1
102
RTVSPropertyOp61
 70
     1
102
RTVSPropertyOp62
 70
     1
  0
XRECORD
  5
1645
102
{ACAD_REACTORS
330
1644
102
}
330
1644
100
AcDbXrecord
280
     1
102
RTVSPost2010Prop28
280
     0
102
RTVSPost2010PropOp28
 70
     1
102
RTVSPost2010Prop29
280
     1
102
RTVSPost2010PropOp29
 70
     1
102
RTVSPost2010Prop30
280
     1
102
RTVSPost2010PropOp30
 70
     1
102
RTVSPost2010Prop31
280
     0
102
RTVSPost2010PropOp31
 70
     1
102
RTVSPost2010Prop32
280
     0
102
RTVSPost2010PropOp32
 70
     1
102
RTVSPost2010Prop33
280
     0
102
RTVSPost2010PropOp33
 70
     1
102
RTVSPost2010Prop34
280
     0
102
RTVSPost2010PropOp34
 70
     1
102
RTVSPost2010Prop35
280
     0
102
RTVSPost2010PropOp35
 70
     1
102
RTVSPost2010Prop36
280
     0
102
RTVSPost2010PropOp36
 70
     1
102
RTVSPost2010Prop37
 90
       50
102
RTVSPost2010PropOp37
 70
     1
102
RTVSPost2010Prop38
140
0.0
102
RTVSPost2010PropOp38
 70
     1
102
RTVSPost2010Prop39
140
1.0
102
RTVSPost2010PropOp39
 70
     1
102
RTVSPost2010Prop40
 90
        0
102
RTVSPost2010PropOp40
 70
     1
102
RTVSPost2010Prop41ColorIndex
 90
       18
102
RTVSPost2010Prop41ColorRGB
 90
        0
102
RTVSPost2010PropOp41
 70
     1
102
RTVSPost2010Prop42
 90
       50
102
RTVSPost2010PropOp42
 70
     1
102
RTVSPost2010Prop43
 90
        3
102
RTVSPost2010PropOp43
 70
     1
102
RTVSPost2010Prop44ColorIndex
 90
        5
102
RTVSPost2010Prop44ColorRGB
 90
      255
102
RTVSPost2010PropOp44
 70
     1
102
RTVSPost2010Prop45
280
     0
102
RTVSPost2010PropOp45
 70
     1
102
RTVSPost2010Prop46
 90
       50
102
RTVSPost2010PropOp46
 70
     1
102
RTVSPost2010Prop47
 90
       50
102
RTVSPost2010PropOp47
 70
     1
102
RTVSPost2010Prop48
 90
       50
102
RTVSPost2010PropOp48
 70
     1
102
RTVSPost2010Prop49
280
     0
102
RTVSPost2010PropOp49
 70
     1
102
RTVSPost2010Prop50
 90
       50
102
RTVSPost2010PropOp50
 70
     1
102
RTVSPost2010Prop51ColorIndex
 90
      256
102
RTVSPost2010Prop51ColorRGB
 90
-16777216
102
RTVSPost2010PropOp51
 70
     0
102
RTVSPost2010Prop52
140
1.0
102
RTVSPost2010PropOp52
 70
     0
102
RTVSPost2010Prop53
 90
        2
102
RTVSPost2010PropOp53
 70
     1
102
RTVSPost2010Prop54
  1
strokes_ogs.tif
102
RTVSPost2010PropOp54
 70
     1
102
RTVSPost2010Prop55
280
     0
102
RTVSPost2010PropOp55
 70
     1
102
RTVSPost2010Prop56
140
1.0
102
RTVSPost2010PropOp56
 70
     1
102
RTVSPost2010Prop57
140
1.0
102
RTVSPost2010PropOp57
 70
     1
102
RTVSPropertyOp0
 70
     1
102
RTVSPropertyOp1
 70
     1
102
RTVSPropertyOp2
 70
     1
102
RTVSPropertyOp3
 70
     1
102
RTVSPropertyOp4
 70
     1
102
RTVSPropertyOp5
 70
     1
102
RTVSPropertyOp6
 70
     1
102
RTVSPropertyOp7
 70
     1
102
RTVSPropertyOp8
 70
     1
102
RTVSPropertyOp9
 70
     1
102
RTVSPropertyOp10
 70
     1
102
RTVSPropertyOp11
 70
     1
102
RTVSPropertyOp12
 70
     1
102
RTVSPropertyOp13
 70
     1
102
RTVSPropertyOp14
 70
     1
102
RTVSPropertyOp15
 70
     1
102
RTVSPropertyOp16
 70
     1
102
RTVSPropertyOp17
 70
     1
102
RTVSPropertyOp18
 70
     1
102
RTVSPropertyOp19
 70
     1
102
RTVSPropertyOp20
 70
     1
102
RTVSPropertyOp21
 70
     1
102
RTVSPropertyOp22
 70
     1
102
RTVSPropertyOp23
 70
     1
102
RTVSPropertyOp24
 70
     1
102
RTVSPropertyOp25
 70
     1
102
RTVSPropertyOp26
 70
     1
102
RTVSPropertyOp27
 70
     1
102
RTVSPropertyOp28
 70
     1
102
RTVSPropertyOp29
 70
     1
102
RTVSPropertyOp30
 70
     1
102
RTVSPropertyOp31
 70
     1
102
RTVSPropertyOp32
 70
     1
102
RTVSPropertyOp33
 70
     1
102
RTVSPropertyOp34
 70
     1
102
RTVSPropertyOp35
 70
     1
102
RTVSPropertyOp36
 70
     1
102
RTVSPropertyOp37
 70
     1
102
RTVSPropertyOp38
 70
     1
102
RTVSPropertyOp39
 70
     1
102
RTVSPropertyOp40
 70
     1
102
RTVSPropertyOp41
 70
     1
102
RTVSPropertyOp42
 70
     1
102
RTVSPropertyOp43
 70
     1
102
RTVSPropertyOp44
 70
     1
102
RTVSPropertyOp45
 70
     1
102
RTVSPropertyOp46
 70
     1
102
RTVSPropertyOp47
 70
     1
102
RTVSPropertyOp48
 70
     1
102
RTVSPropertyOp49
 70
     1
102
RTVSPropertyOp50
 70
     1
102
RTVSPropertyOp51
 70
     0
102
RTVSPropertyOp52
 70
     0
102
RTVSPropertyOp53
 70
     1
102
RTVSPropertyOp54
 70
     1
102
RTVSPropertyOp55
 70
     1
102
RTVSPropertyOp56
 70
     1
102
RTVSPropertyOp57
 70
     1
102
RTVSPropertyOp58
 70
     1
102
RTVSPropertyOp59
 70
     1
102
RTVSPropertyOp60
 70
     1
102
RTVSPropertyOp61
 70
     1
102
RTVSPropertyOp62
 70
     1
  0
XRECORD
  5
1647
102
{ACAD_REACTORS
330
1646
102
}
330
1646
100
AcDbXrecord
280
     1
102
RTVSPost2010Prop28
280
     0
102
RTVSPost2010PropOp28
 70
     1
102
RTVSPost2010Prop29
280
     1
102
RTVSPost2010PropOp29
 70
     1
102
RTVSPost2010Prop30
280
     1
102
RTVSPost2010PropOp30
 70
     1
102
RTVSPost2010Prop31
280
     0
102
RTVSPost2010PropOp31
 70
     1
102
RTVSPost2010Prop32
280
     0
102
RTVSPost2010PropOp32
 70
     1
102
RTVSPost2010Prop33
280
     0
102
RTVSPost2010PropOp33
 70
     1
102
RTVSPost2010Prop34
280
     0
102
RTVSPost2010PropOp34
 70
     1
102
RTVSPost2010Prop35
280
     0
102
RTVSPost2010PropOp35
 70
     1
102
RTVSPost2010Prop36
280
     0
102
RTVSPost2010PropOp36
 70
     1
102
RTVSPost2010Prop37
 90
       50
102
RTVSPost2010PropOp37
 70
     1
102
RTVSPost2010Prop38
140
0.0
102
RTVSPost2010PropOp38
 70
     1
102
RTVSPost2010Prop39
140
1.0
102
RTVSPost2010PropOp39
 70
     1
102
RTVSPost2010Prop40
 90
        0
102
RTVSPost2010PropOp40
 70
     1
102
RTVSPost2010Prop41ColorIndex
 90
       18
102
RTVSPost2010Prop41ColorRGB
 90
        0
102
RTVSPost2010PropOp41
 70
     1
102
RTVSPost2010Prop42
 90
       50
102
RTVSPost2010PropOp42
 70
     1
102
RTVSPost2010Prop43
 90
        3
102
RTVSPost2010PropOp43
 70
     1
102
RTVSPost2010Prop44ColorIndex
 90
        5
102
RTVSPost2010Prop44ColorRGB
 90
      255
102
RTVSPost2010PropOp44
 70
     1
102
RTVSPost2010Prop45
280
     0
102
RTVSPost2010PropOp45
 70
     1
102
RTVSPost2010Prop46
 90
       50
102
RTVSPost2010PropOp46
 70
     1
102
RTVSPost2010Prop47
 90
       50
102
RTVSPost2010PropOp47
 70
     1
102
RTVSPost2010Prop48
 90
       50
102
RTVSPost2010PropOp48
 70
     1
102
RTVSPost2010Prop49
280
     0
102
RTVSPost2010PropOp49
 70
     1
102
RTVSPost2010Prop50
 90
       50
102
RTVSPost2010PropOp50
 70
     1
102
RTVSPost2010Prop51ColorIndex
 90
      256
102
RTVSPost2010Prop51ColorRGB
 90
-16777216
102
RTVSPost2010PropOp51
 70
     0
102
RTVSPost2010Prop52
140
1.0
102
RTVSPost2010PropOp52
 70
     0
102
RTVSPost2010Prop53
 90
        2
102
RTVSPost2010PropOp53
 70
     1
102
RTVSPost2010Prop54
  1
strokes_ogs.tif
102
RTVSPost2010PropOp54
 70
     1
102
RTVSPost2010Prop55
280
     0
102
RTVSPost2010PropOp55
 70
     1
102
RTVSPost2010Prop56
140
1.0
102
RTVSPost2010PropOp56
 70
     1
102
RTVSPost2010Prop57
140
1.0
102
RTVSPost2010PropOp57
 70
     1
102
RTVSPropertyOp0
 70
     1
102
RTVSPropertyOp1
 70
     1
102
RTVSPropertyOp2
 70
     1
102
RTVSPropertyOp3
 70
     1
102
RTVSPropertyOp4
 70
     1
102
RTVSPropertyOp5
 70
     1
102
RTVSPropertyOp6
 70
     1
102
RTVSPropertyOp7
 70
     1
102
RTVSPropertyOp8
 70
     1
102
RTVSPropertyOp9
 70
     1
102
RTVSPropertyOp10
 70
     1
102
RTVSPropertyOp11
 70
     1
102
RTVSPropertyOp12
 70
     1
102
RTVSPropertyOp13
 70
     1
102
RTVSPropertyOp14
 70
     1
102
RTVSPropertyOp15
 70
     1
102
RTVSPropertyOp16
 70
     1
102
RTVSPropertyOp17
 70
     1
102
RTVSPropertyOp18
 70
     1
102
RTVSPropertyOp19
 70
     1
102
RTVSPropertyOp20
 70
     1
102
RTVSPropertyOp21
 70
     1
102
RTVSPropertyOp22
 70
     1
102
RTVSPropertyOp23
 70
     1
102
RTVSPropertyOp24
 70
     1
102
RTVSPropertyOp25
 70
     1
102
RTVSPropertyOp26
 70
     1
102
RTVSPropertyOp27
 70
     1
102
RTVSPropertyOp28
 70
     1
102
RTVSPropertyOp29
 70
     1
102
RTVSPropertyOp30
 70
     1
102
RTVSPropertyOp31
 70
     1
102
RTVSPropertyOp32
 70
     1
102
RTVSPropertyOp33
 70
     1
102
RTVSPropertyOp34
 70
     1
102
RTVSPropertyOp35
 70
     1
102
RTVSPropertyOp36
 70
     1
102
RTVSPropertyOp37
 70
     1
102
RTVSPropertyOp38
 70
     1
102
RTVSPropertyOp39
 70
     1
102
RTVSPropertyOp40
 70
     1
102
RTVSPropertyOp41
 70
     1
102
RTVSPropertyOp42
 70
     1
102
RTVSPropertyOp43
 70
     1
102
RTVSPropertyOp44
 70
     1
102
RTVSPropertyOp45
 70
     1
102
RTVSPropertyOp46
 70
     1
102
RTVSPropertyOp47
 70
     1
102
RTVSPropertyOp48
 70
     1
102
RTVSPropertyOp49
 70
     1
102
RTVSPropertyOp50
 70
     1
102
RTVSPropertyOp51
 70
     0
102
RTVSPropertyOp52
 70
     0
102
RTVSPropertyOp53
 70
     1
102
RTVSPropertyOp54
 70
     1
102
RTVSPropertyOp55
 70
     1
102
RTVSPropertyOp56
 70
     1
102
RTVSPropertyOp57
 70
     1
102
RTVSPropertyOp58
 70
     1
102
RTVSPropertyOp59
 70
     1
102
RTVSPropertyOp60
 70
     1
102
RTVSPropertyOp61
 70
     1
102
RTVSPropertyOp62
 70
     1
  0
XRECORD
  5
1638
102
{ACAD_REACTORS
330
1637
102
}
330
1637
100
AcDbXrecord
280
     1
102
RTVSPost2010Prop28
280
     0
102
RTVSPost2010PropOp28
 70
     1
102
RTVSPost2010Prop29
280
     1
102
RTVSPost2010PropOp29
 70
     1
102
RTVSPost2010Prop30
280
     1
102
RTVSPost2010PropOp30
 70
     1
102
RTVSPost2010Prop31
280
     0
102
RTVSPost2010PropOp31
 70
     1
102
RTVSPost2010Prop32
280
     0
102
RTVSPost2010PropOp32
 70
     1
102
RTVSPost2010Prop33
280
     0
102
RTVSPost2010PropOp33
 70
     1
102
RTVSPost2010Prop34
280
     0
102
RTVSPost2010PropOp34
 70
     1
102
RTVSPost2010Prop35
280
     0
102
RTVSPost2010PropOp35
 70
     1
102
RTVSPost2010Prop36
280
     0
102
RTVSPost2010PropOp36
 70
     1
102
RTVSPost2010Prop37
 90
       50
102
RTVSPost2010PropOp37
 70
     1
102
RTVSPost2010Prop38
140
0.0
102
RTVSPost2010PropOp38
 70
     1
102
RTVSPost2010Prop39
140
1.0
102
RTVSPost2010PropOp39
 70
     1
102
RTVSPost2010Prop40
 90
        0
102
RTVSPost2010PropOp40
 70
     1
102
RTVSPost2010Prop41ColorIndex
 90
       18
102
RTVSPost2010Prop41ColorRGB
 90
        0
102
RTVSPost2010PropOp41
 70
     1
102
RTVSPost2010Prop42
 90
       50
102
RTVSPost2010PropOp42
 70
     1
102
RTVSPost2010Prop43
 90
        3
102
RTVSPost2010PropOp43
 70
     1
102
RTVSPost2010Prop44ColorIndex
 90
        5
102
RTVSPost2010Prop44ColorRGB
 90
      255
102
RTVSPost2010PropOp44
 70
     1
102
RTVSPost2010Prop45
280
     0
102
RTVSPost2010PropOp45
 70
     1
102
RTVSPost2010Prop46
 90
       50
102
RTVSPost2010PropOp46
 70
     1
102
RTVSPost2010Prop47
 90
       50
102
RTVSPost2010PropOp47
 70
     1
102
RTVSPost2010Prop48
 90
       50
102
RTVSPost2010PropOp48
 70
     1
102
RTVSPost2010Prop49
280
     0
102
RTVSPost2010PropOp49
 70
     1
102
RTVSPost2010Prop50
 90
       50
102
RTVSPost2010PropOp50
 70
     1
102
RTVSPost2010Prop51ColorIndex
 90
      256
102
RTVSPost2010Prop51ColorRGB
 90
-16777216
102
RTVSPost2010PropOp51
 70
     0
102
RTVSPost2010Prop52
140
1.0
102
RTVSPost2010PropOp52
 70
     0
102
RTVSPost2010Prop53
 90
        2
102
RTVSPost2010PropOp53
 70
     1
102
RTVSPost2010Prop54
  1
strokes_ogs.tif
102
RTVSPost2010PropOp54
 70
     1
102
RTVSPost2010Prop55
280
     0
102
RTVSPost2010PropOp55
 70
     1
102
RTVSPost2010Prop56
140
1.0
102
RTVSPost2010PropOp56
 70
     1
102
RTVSPost2010Prop57
140
1.0
102
RTVSPost2010PropOp57
 70
     1
102
RTVSPropertyOp0
 70
     1
102
RTVSPropertyOp1
 70
     1
102
RTVSPropertyOp2
 70
     1
102
RTVSPropertyOp3
 70
     1
102
RTVSPropertyOp4
 70
     1
102
RTVSPropertyOp5
 70
     1
102
RTVSPropertyOp6
 70
     1
102
RTVSPropertyOp7
 70
     1
102
RTVSPropertyOp8
 70
     1
102
RTVSPropertyOp9
 70
     1
102
RTVSPropertyOp10
 70
     1
102
RTVSPropertyOp11
 70
     1
102
RTVSPropertyOp12
 70
     1
102
RTVSPropertyOp13
 70
     1
102
RTVSPropertyOp14
 70
     1
102
RTVSPropertyOp15
 70
     1
102
RTVSPropertyOp16
 70
     1
102
RTVSPropertyOp17
 70
     1
102
RTVSPropertyOp18
 70
     1
102
RTVSPropertyOp19
 70
     1
102
RTVSPropertyOp20
 70
     1
102
RTVSPropertyOp21
 70
     1
102
RTVSPropertyOp22
 70
     1
102
RTVSPropertyOp23
 70
     1
102
RTVSPropertyOp24
 70
     1
102
RTVSPropertyOp25
 70
     1
102
RTVSPropertyOp26
 70
     1
102
RTVSPropertyOp27
 70
     1
102
RTVSPropertyOp28
 70
     1
102
RTVSPropertyOp29
 70
     1
102
RTVSPropertyOp30
 70
     1
102
RTVSPropertyOp31
 70
     1
102
RTVSPropertyOp32
 70
     1
102
RTVSPropertyOp33
 70
     1
102
RTVSPropertyOp34
 70
     1
102
RTVSPropertyOp35
 70
     1
102
RTVSPropertyOp36
 70
     1
102
RTVSPropertyOp37
 70
     1
102
RTVSPropertyOp38
 70
     1
102
RTVSPropertyOp39
 70
     1
102
RTVSPropertyOp40
 70
     1
102
RTVSPropertyOp41
 70
     1
102
RTVSPropertyOp42
 70
     1
102
RTVSPropertyOp43
 70
     1
102
RTVSPropertyOp44
 70
     1
102
RTVSPropertyOp45
 70
     1
102
RTVSPropertyOp46
 70
     1
102
RTVSPropertyOp47
 70
     1
102
RTVSPropertyOp48
 70
     1
102
RTVSPropertyOp49
 70
     1
102
RTVSPropertyOp50
 70
     1
102
RTVSPropertyOp51
 70
     0
102
RTVSPropertyOp52
 70
     0
102
RTVSPropertyOp53
 70
     1
102
RTVSPropertyOp54
 70
     1
102
RTVSPropertyOp55
 70
     1
102
RTVSPropertyOp56
 70
     1
102
RTVSPropertyOp57
 70
     1
102
RTVSPropertyOp58
 70
     1
102
RTVSPropertyOp59
 70
     1
102
RTVSPropertyOp60
 70
     1
102
RTVSPropertyOp61
 70
     1
102
RTVSPropertyOp62
 70
     1
  0
XRECORD
  5
1641
102
{ACAD_REACTORS
330
1640
102
}
330
1640
100
AcDbXrecord
280
     1
102
RTVSPost2010Prop28
280
     0
102
RTVSPost2010PropOp28
 70
     1
102
RTVSPost2010Prop29
280
     1
102
RTVSPost2010PropOp29
 70
     1
102
RTVSPost2010Prop30
280
     1
102
RTVSPost2010PropOp30
 70
     1
102
RTVSPost2010Prop31
280
     0
102
RTVSPost2010PropOp31
 70
     1
102
RTVSPost2010Prop32
280
     0
102
RTVSPost2010PropOp32
 70
     1
102
RTVSPost2010Prop33
280
     0
102
RTVSPost2010PropOp33
 70
     1
102
RTVSPost2010Prop34
280
     0
102
RTVSPost2010PropOp34
 70
     1
102
RTVSPost2010Prop35
280
     0
102
RTVSPost2010PropOp35
 70
     1
102
RTVSPost2010Prop36
280
     0
102
RTVSPost2010PropOp36
 70
     1
102
RTVSPost2010Prop37
 90
       50
102
RTVSPost2010PropOp37
 70
     1
102
RTVSPost2010Prop38
140
0.0
102
RTVSPost2010PropOp38
 70
     1
102
RTVSPost2010Prop39
140
1.0
102
RTVSPost2010PropOp39
 70
     1
102
RTVSPost2010Prop40
 90
        0
102
RTVSPost2010PropOp40
 70
     1
102
RTVSPost2010Prop41ColorIndex
 90
       18
102
RTVSPost2010Prop41ColorRGB
 90
        0
102
RTVSPost2010PropOp41
 70
     1
102
RTVSPost2010Prop42
 90
       50
102
RTVSPost2010PropOp42
 70
     1
102
RTVSPost2010Prop43
 90
        3
102
RTVSPost2010PropOp43
 70
     1
102
RTVSPost2010Prop44ColorIndex
 90
        5
102
RTVSPost2010Prop44ColorRGB
 90
      255
102
RTVSPost2010PropOp44
 70
     1
102
RTVSPost2010Prop45
280
     0
102
RTVSPost2010PropOp45
 70
     1
102
RTVSPost2010Prop46
 90
       50
102
RTVSPost2010PropOp46
 70
     1
102
RTVSPost2010Prop47
 90
       50
102
RTVSPost2010PropOp47
 70
     1
102
RTVSPost2010Prop48
 90
       50
102
RTVSPost2010PropOp48
 70
     1
102
RTVSPost2010Prop49
280
     0
102
RTVSPost2010PropOp49
 70
     1
102
RTVSPost2010Prop50
 90
       50
102
RTVSPost2010PropOp50
 70
     1
102
RTVSPost2010Prop51ColorIndex
 90
      256
102
RTVSPost2010Prop51ColorRGB
 90
-16777216
102
RTVSPost2010PropOp51
 70
     0
102
RTVSPost2010Prop52
140
1.0
102
RTVSPost2010PropOp52
 70
     0
102
RTVSPost2010Prop53
 90
        2
102
RTVSPost2010PropOp53
 70
     1
102
RTVSPost2010Prop54
  1
strokes_ogs.tif
102
RTVSPost2010PropOp54
 70
     1
102
RTVSPost2010Prop55
280
     0
102
RTVSPost2010PropOp55
 70
     1
102
RTVSPost2010Prop56
140
1.0
102
RTVSPost2010PropOp56
 70
     1
102
RTVSPost2010Prop57
140
1.0
102
RTVSPost2010PropOp57
 70
     1
102
RTVSPropertyOp0
 70
     1
102
RTVSPropertyOp1
 70
     1
102
RTVSPropertyOp2
 70
     1
102
RTVSPropertyOp3
 70
     1
102
RTVSPropertyOp4
 70
     1
102
RTVSPropertyOp5
 70
     1
102
RTVSPropertyOp6
 70
     1
102
RTVSPropertyOp7
 70
     1
102
RTVSPropertyOp8
 70
     1
102
RTVSPropertyOp9
 70
     1
102
RTVSPropertyOp10
 70
     1
102
RTVSPropertyOp11
 70
     1
102
RTVSPropertyOp12
 70
     1
102
RTVSPropertyOp13
 70
     1
102
RTVSPropertyOp14
 70
     1
102
RTVSPropertyOp15
 70
     1
102
RTVSPropertyOp16
 70
     1
102
RTVSPropertyOp17
 70
     1
102
RTVSPropertyOp18
 70
     1
102
RTVSPropertyOp19
 70
     1
102
RTVSPropertyOp20
 70
     1
102
RTVSPropertyOp21
 70
     1
102
RTVSPropertyOp22
 70
     1
102
RTVSPropertyOp23
 70
     1
102
RTVSPropertyOp24
 70
     1
102
RTVSPropertyOp25
 70
     1
102
RTVSPropertyOp26
 70
     1
102
RTVSPropertyOp27
 70
     1
102
RTVSPropertyOp28
 70
     1
102
RTVSPropertyOp29
 70
     1
102
RTVSPropertyOp30
 70
     1
102
RTVSPropertyOp31
 70
     1
102
RTVSPropertyOp32
 70
     1
102
RTVSPropertyOp33
 70
     1
102
RTVSPropertyOp34
 70
     1
102
RTVSPropertyOp35
 70
     1
102
RTVSPropertyOp36
 70
     1
102
RTVSPropertyOp37
 70
     1
102
RTVSPropertyOp38
 70
     1
102
RTVSPropertyOp39
 70
     1
102
RTVSPropertyOp40
 70
     1
102
RTVSPropertyOp41
 70
     1
102
RTVSPropertyOp42
 70
     1
102
RTVSPropertyOp43
 70
     1
102
RTVSPropertyOp44
 70
     1
102
RTVSPropertyOp45
 70
     1
102
RTVSPropertyOp46
 70
     1
102
RTVSPropertyOp47
 70
     1
102
RTVSPropertyOp48
 70
     1
102
RTVSPropertyOp49
 70
     1
102
RTVSPropertyOp50
 70
     1
102
RTVSPropertyOp51
 70
     0
102
RTVSPropertyOp52
 70
     0
102
RTVSPropertyOp53
 70
     1
102
RTVSPropertyOp54
 70
     1
102
RTVSPropertyOp55
 70
     1
102
RTVSPropertyOp56
 70
     1
102
RTVSPropertyOp57
 70
     1
102
RTVSPropertyOp58
 70
     1
102
RTVSPropertyOp59
 70
     1
102
RTVSPropertyOp60
 70
     1
102
RTVSPropertyOp61
 70
     1
102
RTVSPropertyOp62
 70
     1
  0
XRECORD
  5
1649
102
{ACAD_REACTORS
330
1648
102
}
330
1648
100
AcDbXrecord
280
     1
102
RTVSPost2010Prop28
280
     0
102
RTVSPost2010PropOp28
 70
     1
102
RTVSPost2010Prop29
280
     1
102
RTVSPost2010PropOp29
 70
     1
102
RTVSPost2010Prop30
280
     1
102
RTVSPost2010PropOp30
 70
     1
102
RTVSPost2010Prop31
280
     0
102
RTVSPost2010PropOp31
 70
     1
102
RTVSPost2010Prop32
280
     0
102
RTVSPost2010PropOp32
 70
     1
102
RTVSPost2010Prop33
280
     0
102
RTVSPost2010PropOp33
 70
     1
102
RTVSPost2010Prop34
280
     0
102
RTVSPost2010PropOp34
 70
     1
102
RTVSPost2010Prop35
280
     0
102
RTVSPost2010PropOp35
 70
     1
102
RTVSPost2010Prop36
280
     0
102
RTVSPost2010PropOp36
 70
     1
102
RTVSPost2010Prop37
 90
       50
102
RTVSPost2010PropOp37
 70
     1
102
RTVSPost2010Prop38
140
0.0
102
RTVSPost2010PropOp38
 70
     1
102
RTVSPost2010Prop39
140
1.0
102
RTVSPost2010PropOp39
 70
     1
102
RTVSPost2010Prop40
 90
        0
102
RTVSPost2010PropOp40
 70
     1
102
RTVSPost2010Prop41ColorIndex
 90
       18
102
RTVSPost2010Prop41ColorRGB
 90
        0
102
RTVSPost2010PropOp41
 70
     1
102
RTVSPost2010Prop42
 90
       50
102
RTVSPost2010PropOp42
 70
     1
102
RTVSPost2010Prop43
 90
        3
102
RTVSPost2010PropOp43
 70
     1
102
RTVSPost2010Prop44ColorIndex
 90
        5
102
RTVSPost2010Prop44ColorRGB
 90
      255
102
RTVSPost2010PropOp44
 70
     1
102
RTVSPost2010Prop45
280
     0
102
RTVSPost2010PropOp45
 70
     1
102
RTVSPost2010Prop46
 90
       50
102
RTVSPost2010PropOp46
 70
     1
102
RTVSPost2010Prop47
 90
       50
102
RTVSPost2010PropOp47
 70
     1
102
RTVSPost2010Prop48
 90
       50
102
RTVSPost2010PropOp48
 70
     1
102
RTVSPost2010Prop49
280
     0
102
RTVSPost2010PropOp49
 70
     1
102
RTVSPost2010Prop50
 90
       50
102
RTVSPost2010PropOp50
 70
     1
102
RTVSPost2010Prop51ColorIndex
 90
      256
102
RTVSPost2010Prop51ColorRGB
 90
-16777216
102
RTVSPost2010PropOp51
 70
     0
102
RTVSPost2010Prop52
140
1.0
102
RTVSPost2010PropOp52
 70
     0
102
RTVSPost2010Prop53
 90
        2
102
RTVSPost2010PropOp53
 70
     1
102
RTVSPost2010Prop54
  1
strokes_ogs.tif
102
RTVSPost2010PropOp54
 70
     1
102
RTVSPost2010Prop55
280
     0
102
RTVSPost2010PropOp55
 70
     1
102
RTVSPost2010Prop56
140
1.0
102
RTVSPost2010PropOp56
 70
     1
102
RTVSPost2010Prop57
140
1.0
102
RTVSPost2010PropOp57
 70
     1
102
RTVSPropertyOp0
 70
     1
102
RTVSPropertyOp1
 70
     1
102
RTVSPropertyOp2
 70
     1
102
RTVSPropertyOp3
 70
     1
102
RTVSPropertyOp4
 70
     1
102
RTVSPropertyOp5
 70
     1
102
RTVSPropertyOp6
 70
     1
102
RTVSPropertyOp7
 70
     1
102
RTVSPropertyOp8
 70
     1
102
RTVSPropertyOp9
 70
     1
102
RTVSPropertyOp10
 70
     1
102
RTVSPropertyOp11
 70
     1
102
RTVSPropertyOp12
 70
     1
102
RTVSPropertyOp13
 70
     1
102
RTVSPropertyOp14
 70
     1
102
RTVSPropertyOp15
 70
     1
102
RTVSPropertyOp16
 70
     1
102
RTVSPropertyOp17
 70
     1
102
RTVSPropertyOp18
 70
     1
102
RTVSPropertyOp19
 70
     1
102
RTVSPropertyOp20
 70
     1
102
RTVSPropertyOp21
 70
     1
102
RTVSPropertyOp22
 70
     1
102
RTVSPropertyOp23
 70
     1
102
RTVSPropertyOp24
 70
     1
102
RTVSPropertyOp25
 70
     1
102
RTVSPropertyOp26
 70
     1
102
RTVSPropertyOp27
 70
     1
102
RTVSPropertyOp28
 70
     1
102
RTVSPropertyOp29
 70
     1
102
RTVSPropertyOp30
 70
     1
102
RTVSPropertyOp31
 70
     1
102
RTVSPropertyOp32
 70
     1
102
RTVSPropertyOp33
 70
     1
102
RTVSPropertyOp34
 70
     1
102
RTVSPropertyOp35
 70
     1
102
RTVSPropertyOp36
 70
     1
102
RTVSPropertyOp37
 70
     1
102
RTVSPropertyOp38
 70
     1
102
RTVSPropertyOp39
 70
     1
102
RTVSPropertyOp40
 70
     1
102
RTVSPropertyOp41
 70
     1
102
RTVSPropertyOp42
 70
     1
102
RTVSPropertyOp43
 70
     1
102
RTVSPropertyOp44
 70
     1
102
RTVSPropertyOp45
 70
     1
102
RTVSPropertyOp46
 70
     1
102
RTVSPropertyOp47
 70
     1
102
RTVSPropertyOp48
 70
     1
102
RTVSPropertyOp49
 70
     1
102
RTVSPropertyOp50
 70
     1
102
RTVSPropertyOp51
 70
     0
102
RTVSPropertyOp52
 70
     0
102
RTVSPropertyOp53
 70
     1
102
RTVSPropertyOp54
 70
     1
102
RTVSPropertyOp55
 70
     1
102
RTVSPropertyOp56
 70
     1
102
RTVSPropertyOp57
 70
     1
102
RTVSPropertyOp58
 70
     1
102
RTVSPropertyOp59
 70
     1
102
RTVSPropertyOp60
 70
     1
102
RTVSPropertyOp61
 70
     1
102
RTVSPropertyOp62
 70
     1
  0
ENDSEC
  0
EOF
