  0
SECTION
  2
HEADER
  9
$ACADVER
  1
AC1018
  9
$ACADMAINTVER
 70
   104
  9
$DWGCODEPAGE
  3
ANSI_1252
  9
$LASTSAVEDBY
  1
Dennis
  9
$INSBASE
 10
0.0
 20
0.0
 30
0.0
  9
$EXTMIN
 10
9598.733385368209
 20
-911.5532296701495
 30
0.0
  9
$EXTMAX
 10
10238.00616577682
 20
-363.1294436174394
 30
0.0
  9
$LIMMIN
 10
0.0
 20
0.0
  9
$LIMMAX
 10
12.0
 20
9.0
  9
$ORTHOMODE
 70
     0
  9
$REGENMODE
 70
     1
  9
$FILLMODE
 70
     1
  9
$QTEXTMODE
 70
     0
  9
$MIRRTEXT
 70
     0
  9
$LTSCALE
 40
1.0
  9
$ATTMODE
 70
     1
  9
$TEXTSIZE
 40
2.5
  9
$TRACEWID
 40
0.05
  9
$TEXTSTYLE
  7
1
  9
$CLAYER
  8
TEXT
  9
$CELTYPE
  6
ByLayer
  9
$CECOLOR
 62
   256
  9
$CELTSCALE
 40
1.0
  9
$DISPSILH
 70
     0
  9
$DIMSCALE
 40
0.0
  9
$DIMASZ
 40
3.0
  9
$DIMEXO
 40
1.0
  9
$DIMDLI
 40
1.0
  9
$DIMRND
 40
0.0
  9
$DIMDLE
 40
0.0
  9
$DIMEXE
 40
1.0
  9
$DIMTP
 40
0.0
  9
$DIMTM
 40
0.0
  9
$DIMTXT
 40
2.5
  9
$DIMCEN
 40
0.09
  9
$DIMTSZ
 40
0.0
  9
$DIMTOL
 70
     0
  9
$DIMLIM
 70
     0
  9
$DIMTIH
 70
     0
  9
$DIMTOH
 70
     0
  9
$DIMSE1
 70
     0
  9
$DIMSE2
 70
     0
  9
$DIMTAD
 70
     1
  9
$DIMZIN
 70
     0
  9
$DIMBLK
  1

  9
$DIMASO
 70
     1
  9
$DIMSHO
 70
     1
  9
$DIMPOST
  1

  9
$DIMAPOST
  1

  9
$DIMALT
 70
     0
  9
$DIMALTD
 70
     2
  9
$DIMALTF
 40
25.4
  9
$DIMLFAC
 40
1.0
  9
$DIMTOFL
 70
     0
  9
$DIMTVP
 40
0.0
  9
$DIMTIX
 70
     0
  9
$DIMSOXD
 70
     0
  9
$DIMSAH
 70
     0
  9
$DIMBLK1
  1

  9
$DIMBLK2
  1

  9
$DIMSTYLE
  2
1
  9
$DIMCLRD
 70
   256
  9
$DIMCLRE
 70
   256
  9
$DIMCLRT
 70
   256
  9
$DIMTFAC
 40
1.0
  9
$DIMGAP
 40
1.0
  9
$DIMJUST
 70
     0
  9
$DIMSD1
 70
     0
  9
$DIMSD2
 70
     0
  9
$DIMTOLJ
 70
     1
  9
$DIMTZIN
 70
     0
  9
$DIMALTZ
 70
     0
  9
$DIMALTTZ
 70
     0
  9
$DIMUPT
 70
     0
  9
$DIMDEC
 70
     0
  9
$DIMTDEC
 70
     0
  9
$DIMALTU
 70
     2
  9
$DIMALTTD
 70
     2
  9
$DIMTXSTY
  7
1
  9
$DIMAUNIT
 70
     0
  9
$DIMADEC
 70
     0
  9
$DIMALTRND
 40
0.0
  9
$DIMAZIN
 70
     0
  9
$DIMDSEP
 70
    46
  9
$DIMATFIT
 70
     3
  9
$DIMFRAC
 70
     0
  9
$DIMLDRBLK
  1

  9
$DIMLUNIT
 70
     2
  9
$DIMLWD
 70
    -2
  9
$DIMLWE
 70
    -2
  9
$DIMTMOVE
 70
     0
  9
$LUNITS
 70
     2
  9
$LUPREC
 70
     4
  9
$SKETCHINC
 40
0.1
  9
$FILLETRAD
 40
0.0
  9
$AUNITS
 70
     0
  9
$AUPREC
 70
     0
  9
$MENU
  1
.
  9
$ELEVATION
 40
0.0
  9
$PELEVATION
 40
0.0
  9
$THICKNESS
 40
0.0
  9
$LIMCHECK
 70
     0
  9
$CHAMFERA
 40
0.0
  9
$CHAMFERB
 40
0.0
  9
$CHAMFERC
 40
0.0
  9
$CHAMFERD
 40
0.0
  9
$SKPOLY
 70
     0
  9
$TDCREATE
 40
2455236.346948056
  9
$TDUCREATE
 40
2455235.846948056
  9
$TDUPDATE
 40
2456549.656756933
  9
$TDUUPDATE
 40
2456549.156756933
  9
$TDINDWG
 40
0.8714695718
  9
$TDUSRTIMER
 40
0.8714695718
  9
$USRTIMER
 70
     1
  9
$ANGBASE
 50
0.0
  9
$ANGDIR
 70
     0
  9
$PDMODE
 70
     0
  9
$PDSIZE
 40
0.0
  9
$PLINEWID
 40
0.0
  9
$SPLFRAME
 70
     0
  9
$SPLINETYPE
 70
     6
  9
$SPLINESEGS
 70
     8
  9
$HANDSEED
  5
1AA8D
  9
$SURFTAB1
 70
     6
  9
$SURFTAB2
 70
     6
  9
$SURFTYPE
 70
     6
  9
$SURFU
 70
     6
  9
$SURFV
 70
     6
  9
$UCSBASE
  2

  9
$UCSNAME
  2

  9
$UCSORG
 10
0.0
 20
0.0
 30
0.0
  9
$UCSXDIR
 10
1.0
 20
0.0
 30
0.0
  9
$UCSYDIR
 10
0.0
 20
1.0
 30
0.0
  9
$UCSORTHOREF
  2

  9
$UCSORTHOVIEW
 70
     0
  9
$UCSORGTOP
 10
0.0
 20
0.0
 30
0.0
  9
$UCSORGBOTTOM
 10
0.0
 20
0.0
 30
0.0
  9
$UCSORGLEFT
 10
0.0
 20
0.0
 30
0.0
  9
$UCSORGRIGHT
 10
0.0
 20
0.0
 30
0.0
  9
$UCSORGFRONT
 10
0.0
 20
0.0
 30
0.0
  9
$UCSORGBACK
 10
0.0
 20
0.0
 30
0.0
  9
$PUCSBASE
  2

  9
$PUCSNAME
  2

  9
$PUCSORG
 10
0.0
 20
0.0
 30
0.0
  9
$PUCSXDIR
 10
1.0
 20
0.0
 30
0.0
  9
$PUCSYDIR
 10
0.0
 20
1.0
 30
0.0
  9
$PUCSORTHOREF
  2

  9
$PUCSORTHOVIEW
 70
     0
  9
$PUCSORGTOP
 10
0.0
 20
0.0
 30
0.0
  9
$PUCSORGBOTTOM
 10
0.0
 20
0.0
 30
0.0
  9
$PUCSORGLEFT
 10
0.0
 20
0.0
 30
0.0
  9
$PUCSORGRIGHT
 10
0.0
 20
0.0
 30
0.0
  9
$PUCSORGFRONT
 10
0.0
 20
0.0
 30
0.0
  9
$PUCSORGBACK
 10
0.0
 20
0.0
 30
0.0
  9
$USERI1
 70
     0
  9
$USERI2
 70
     0
  9
$USERI3
 70
     0
  9
$USERI4
 70
     0
  9
$USERI5
 70
     0
  9
$USERR1
 40
0.0
  9
$USERR2
 40
0.0
  9
$USERR3
 40
0.0
  9
$USERR4
 40
0.0
  9
$USERR5
 40
0.0
  9
$WORLDVIEW
 70
     1
  9
$SHADEDGE
 70
     3
  9
$SHADEDIF
 70
    70
  9
$TILEMODE
 70
     0
  9
$MAXACTVP
 70
    64
  9
$PINSBASE
 10
0.0
 20
0.0
 30
0.0
  9
$PLIMCHECK
 70
     0
  9
$PEXTMIN
 10
8.593067451048113
 20
8.894638247943134
 30
-0.0000000000112498
  9
$PEXTMAX
 10
198.7948892534981
 20
285.5263785488592
 30
0.0000000000002956
  9
$PLIMMIN
 10
-3.174999952316284
 20
-3.174999952316284
  9
$PLIMMAX
 10
206.7983276844024
 20
293.8568298816681
  9
$UNITMODE
 70
     0
  9
$VISRETAIN
 70
     1
  9
$PLINEGEN
 70
     0
  9
$PSLTSCALE
 70
     0
  9
$TREEDEPTH
 70
  3020
  9
$CMLSTYLE
  2
Standard
  9
$CMLJUST
 70
     0
  9
$CMLSCALE
 40
1.0
  9
$PROXYGRAPHICS
 70
     1
  9
$MEASUREMENT
 70
     0
  9
$CELWEIGHT
370
    -1
  9
$ENDCAPS
280
     0
  9
$JOINSTYLE
280
     0
  9
$LWDISPLAY
290
     1
  9
$INSUNITS
 70
     4
  9
$HYPERLINKBASE
  1

  9
$STYLESHEET
  1
Hebel monochrome.ctb
  9
$XEDIT
290
     1
  9
$CEPSNTYPE
380
     0
  9
$PSTYLEMODE
290
     1
  9
$FINGERPRINTGUID
  2
{E831410F-CB9D-4B8B-A7BA-77BB2A44821D}
  9
$VERSIONGUID
  2
{CC071A18-C343-466D-B433-DAEEB3009E8E}
  9
$EXTNAMES
290
     1
  9
$PSVPSCALE
 40
0.0
  9
$OLESTARTUP
290
     0
  9
$SORTENTS
280
   127
  9
$INDEXCTL
280
     0
  9
$HIDETEXT
280
     1
  9
$XCLIPFRAME
290
     0
  9
$HALOGAP
280
     0
  9
$OBSCOLOR
 70
   257
  9
$OBSLTYPE
280
     0
  9
$INTERSECTIONDISPLAY
280
     0
  9
$INTERSECTIONCOLOR
 70
   257
  9
$DIMASSOC
280
     2
  9
$PROJECTNAME
  1

  0
ENDSEC
  0
SECTION
  2
CLASSES
  0
CLASS
  1
ACDBDICTIONARYWDFLT
  2
AcDbDictionaryWithDefault
  3
ObjectDBX Classes
 90
        0
 91
        1
280
     0
281
     0
  0
CLASS
  1
DICTIONARYVAR
  2
AcDbDictionaryVar
  3
ObjectDBX Classes
 90
        0
 91
       11
280
     0
281
     0
  0
CLASS
  1
TABLESTYLE
  2
AcDbTableStyle
  3
ObjectDBX Classes
 90
     4095
 91
        1
280
     0
281
     0
  0
CLASS
  1
MATERIAL
  2
AcDbMaterial
  3
ObjectDBX Classes
 90
     1153
 91
        3
280
     0
281
     0
  0
CLASS
  1
VISUALSTYLE
  2
AcDbVisualStyle
  3
ObjectDBX Classes
 90
     4095
 91
       26
280
     0
281
     0
  0
CLASS
  1
SCALE
  2
AcDbScale
  3
ObjectDBX Classes
 90
     1153
 91
       33
280
     0
281
     0
  0
CLASS
  1
MLEADERSTYLE
  2
AcDbMLeaderStyle
  3
ACDB_MLEADERSTYLE_CLASS
 90
     4095
 91
        1
280
     0
281
     0
  0
CLASS
  1
CELLSTYLEMAP
  2
AcDbCellStyleMap
  3
ObjectDBX Classes
 90
     1152
 91
        4
280
     0
281
     0
  0
CLASS
  1
EXACXREFPANELOBJECT
  2
ExAcXREFPanelObject
  3
EXAC_ESW
 90
     1025
 91
        0
280
     0
281
     0
  0
CLASS
  1
NPOCOLLECTION
  2
AcDbImpNonPersistentObjectsCollection
  3
ObjectDBX Classes
 90
     1153
 91
        0
280
     0
281
     0
  0
CLASS
  1
LAYER_INDEX
  2
AcDbLayerIndex
  3
ObjectDBX Classes
 90
        0
 91
        0
280
     0
281
     0
  0
CLASS
  1
SPATIAL_INDEX
  2
AcDbSpatialIndex
  3
ObjectDBX Classes
 90
        0
 91
        0
280
     0
281
     0
  0
CLASS
  1
IDBUFFER
  2
AcDbIdBuffer
  3
ObjectDBX Classes
 90
        0
 91
        0
280
     0
281
     0
  0
CLASS
  1
AEC_REFEDIT_STATUS_TRACKER
  2
AecDbRefEditStatusTracker
  3
AecArchBase50|Product Desc: Autodesk Architectural Desktop 2007 |Company: Autodesk,Inc. |WEB Address: www.autodesk.com
 90
      129
 91
        0
280
     0
281
     0
  0
CLASS
  1
SORTENTSTABLE
  2
AcDbSortentsTable
  3
ObjectDBX Classes
 90
        0
 91
        4
280
     0
281
     0
  0
CLASS
  1
DIMASSOC
  2
AcDbDimAssoc
  3
"AcDbDimAssoc|Product Desc:     AcDim ARX App For Dimension|Company:          Autodesk, Inc.|WEB Address:      www.autodesk.com"
 90
        0
 91
        0
280
     0
281
     0
  0
CLASS
  1
ACDB_ALDIMOBJECTCONTEXTDATA_CLASS
  2
AcDbAlignedDimensionObjectContextData
  3
ObjectDBX Classes
 90
     1153
 91
        0
280
     0
281
     0
  0
CLASS
  1
IMAGE
  2
AcDbRasterImage
  3
ISM
 90
     2175
 91
        1
280
     0
281
     1
  0
CLASS
  1
IMAGEDEF_REACTOR
  2
AcDbRasterImageDefReactor
  3
ISM
 90
        1
 91
        1
280
     0
281
     0
  0
CLASS
  1
IMAGEDEF
  2
AcDbRasterImageDef
  3
ISM
 90
        0
 91
        3
280
     0
281
     0
  0
CLASS
  1
RASTERVARIABLES
  2
AcDbRasterVariables
  3
ISM
 90
        0
 91
        1
280
     0
281
     0
  0
CLASS
  1
ACDB_LEADEROBJECTCONTEXTDATA_CLASS
  2
AcDbLeaderObjectContextData
  3
ObjectDBX Classes
 90
     1153
 91
        6
280
     0
281
     0
  0
CLASS
  1
ACDB_MTEXTOBJECTCONTEXTDATA_CLASS
  2
AcDbMTextObjectContextData
  3
ObjectDBX Classes
 90
     1153
 91
        2
280
     0
281
     0
  0
CLASS
  1
PLOTSETTINGS
  2
AcDbPlotSettings
  3
ObjectDBX Classes
 90
        0
 91
        1
280
     0
281
     0
  0
CLASS
  1
ACAD_EVALUATION_GRAPH
  2
AcDbEvalGraph
  3
ObjectDBX Classes
 90
     1153
 91
        0
280
     0
281
     0
  0
CLASS
  1
BLOCKROTATIONPARAMETER
  2
AcDbBlockRotationParameter
  3
ObjectDBX Classes
 90
     1153
 91
        0
280
     0
281
     0
  0
CLASS
  1
BLOCKROTATIONGRIP
  2
AcDbBlockRotationGrip
  3
ObjectDBX Classes
 90
     1153
 91
        0
280
     0
281
     0
  0
CLASS
  1
BLOCKGRIPLOCATIONCOMPONENT
  2
AcDbBlockGripExpr
  3
ObjectDBX Classes
 90
     1153
 91
        0
280
     0
281
     0
  0
CLASS
  1
BLOCKLINEARPARAMETER
  2
AcDbBlockLinearParameter
  3
ObjectDBX Classes
 90
     1153
 91
        0
280
     0
281
     0
  0
CLASS
  1
BLOCKLINEARGRIP
  2
AcDbBlockLinearGrip
  3
ObjectDBX Classes
 90
     1153
 91
        0
280
     0
281
     0
  0
CLASS
  1
BLOCKFLIPPARAMETER
  2
AcDbBlockFlipParameter
  3
ObjectDBX Classes
 90
     1153
 91
        0
280
     0
281
     0
  0
CLASS
  1
BLOCKFLIPGRIP
  2
AcDbBlockFlipGrip
  3
ObjectDBX Classes
 90
     1153
 91
        0
280
     0
281
     0
  0
CLASS
  1
BLOCKSTRETCHACTION
  2
AcDbBlockStretchAction
  3
ObjectDBX Classes
 90
     1153
 91
        0
280
     0
281
     0
  0
CLASS
  1
BLOCKVISIBILITYPARAMETER
  2
AcDbBlockVisibilityParameter
  3
ObjectDBX Classes
 90
     1153
 91
        0
280
     0
281
     0
  0
CLASS
  1
BLOCKVISIBILITYGRIP
  2
AcDbBlockVisibilityGrip
  3
ObjectDBX Classes
 90
     1153
 91
        0
280
     0
281
     0
  0
CLASS
  1
BLOCKSCALEACTION
  2
AcDbBlockScaleAction
  3
ObjectDBX Classes
 90
     1153
 91
        0
280
     0
281
     0
  0
CLASS
  1
BLOCKROTATEACTION
  2
AcDbBlockRotateAction
  3
ObjectDBX Classes
 90
     1153
 91
        0
280
     0
281
     0
  0
CLASS
  1
BLOCKFLIPACTION
  2
AcDbBlockFlipAction
  3
ObjectDBX Classes
 90
     1153
 91
        0
280
     0
281
     0
  0
CLASS
  1
ACDB_DYNAMICBLOCKPURGEPREVENTER_VERSION
  2
AcDbDynamicBlockPurgePreventer
  3
ObjectDBX Classes
 90
     1153
 91
        0
280
     0
281
     0
  0
CLASS
  1
ACDB_BLKREFOBJECTCONTEXTDATA_CLASS
  2
AcDbBlkRefObjectContextData
  3
ObjectDBX Classes
 90
     1153
 91
        0
280
     0
281
     0
  0
CLASS
  1
ACDBSECTIONVIEWSTYLE
  2
AcDbSectionViewStyle
  3
ObjectDBX Classes
 90
     1025
 91
        1
280
     0
281
     0
  0
CLASS
  1
ACDBDETAILVIEWSTYLE
  2
AcDbDetailViewStyle
  3
ObjectDBX Classes
 90
     1025
 91
        1
280
     0
281
     0
  0
ENDSEC
  0
SECTION
  2
TABLES
  0
TABLE
  2
VPORT
  5
8
102
{ACAD_XDICTIONARY
360
11BA6
102
}
330
0
100
AcDbSymbolTable
 70
     1
  0
VPORT
  5
94
330
8
100
AcDbSymbolTableRecord
100
AcDbViewportTableRecord
  2
*Active
 70
     0
 10
0.0
 20
0.0
 11
1.0
 21
1.0
 12
9879.998414907957
 22
-683.1942026072938
 13
0.0
 23
0.0
 14
0.5
 24
0.5
 15
0.5
 25
0.5
 16
0.0
 26
0.0
 36
1.0
 17
0.0
 27
0.0
 37
0.0
 40
659.457478979898
 41
1.546575342465753
 42
50.0
 43
0.0
 44
0.0
 50
0.0
 51
0.0
 71
     0
 72
  1000
 73
     1
 74
     3
 75
     0
 76
     0
 77
     0
 78
     0
281
     0
 65
     1
110
0.0
120
0.0
130
0.0
111
1.0
121
0.0
131
0.0
112
0.0
122
1.0
132
0.0
 79
     0
146
0.0
  0
ENDTAB
  0
TABLE
  2
LTYPE
  5
5
330
0
100
AcDbSymbolTable
 70
     5
  0
LTYPE
  5
14
330
5
100
AcDbSymbolTableRecord
100
AcDbLinetypeTableRecord
  2
ByBlock
 70
     0
  3

 72
    65
 73
     0
 40
0.0
  0
LTYPE
  5
15
330
5
100
AcDbSymbolTableRecord
100
AcDbLinetypeTableRecord
  2
ByLayer
 70
     0
  3

 72
    65
 73
     0
 40
0.0
  0
LTYPE
  5
16
330
5
100
AcDbSymbolTableRecord
100
AcDbLinetypeTableRecord
  2
Continuous
 70
     0
  3
Solid line
 72
    65
 73
     0
 40
0.0
  0
LTYPE
  5
12C0E
330
5
100
AcDbSymbolTableRecord
100
AcDbLinetypeTableRecord
  2
HIDDEN
 70
     0
  3
Hidden __ __ __ __ __ __ __ __ __ __ __ __ __ __
 72
    65
 73
     2
 40
0.375
 49
0.25
 74
     0
 49
-0.125
 74
     0
  0
LTYPE
  5
19E23
330
5
100
AcDbSymbolTableRecord
100
AcDbLinetypeTableRecord
  2
CENTER
 70
     0
  3
___ _ ___ _ ___ _ ___ _ ___ _ ___ _ ___ _ ___ _
 72
    65
 73
     4
 40
0.95
 49
0.625
 74
     0
 49
-0.125
 74
     0
 49
0.075
 74
     0
 49
-0.125
 74
     0
  0
LTYPE
  5
19E24
330
5
100
AcDbSymbolTableRecord
100
AcDbLinetypeTableRecord
  2
DASHED
 70
     0
  3
__ __ __ __ __ __ __ __ __ __ __ __ __ __ __ __
 72
    65
 73
     2
 40
0.75
 49
0.5
 74
     0
 49
-0.25
 74
     0
  0
LTYPE
  5
1A75C
330
5
100
AcDbSymbolTableRecord
100
AcDbLinetypeTableRecord
  2
PHANTOM2
 70
     0
  3
Phantom (.5x) ___ _ _ ___ _ _ ___ _ _ ___ _ _
 72
    65
 73
     6
 40
1.25
 49
0.625
 74
     0
 49
-0.125
 74
     0
 49
0.125
 74
     0
 49
-0.125
 74
     0
 49
0.125
 74
     0
 49
-0.125
 74
     0
  0
ENDTAB
  0
TABLE
  2
LAYER
  5
2
102
{ACAD_XDICTIONARY
360
1D5
102
}
330
0
100
AcDbSymbolTable
 70
    17
  0
LAYER
  5
10
102
{ACAD_XDICTIONARY
360
E6
102
}
330
2
100
AcDbSymbolTableRecord
100
AcDbLayerTableRecord
  2
0
 70
     0
 62
     7
  6
Continuous
370
    -3
390
F
  0
LAYER
  5
171
330
2
100
AcDbSymbolTableRecord
100
AcDbLayerTableRecord
  2
Hebel
 70
     0
 62
     7
  6
Continuous
370
    50
390
F
1001
AcAecLayerStandard
1000

1000

  0
LAYER
  5
173
330
2
100
AcDbSymbolTableRecord
100
AcDbLayerTableRecord
  2
Timber
 70
     0
 62
    34
  6
Continuous
370
    35
390
F
1001
AcAecLayerStandard
1000

1000

  0
LAYER
  5
174
330
2
100
AcDbSymbolTableRecord
100
AcDbLayerTableRecord
  2
Fixings
 70
     0
 62
     4
  6
Continuous
370
    -3
390
F
1001
AcAecLayerStandard
1000

1000

  0
LAYER
  5
175
330
2
100
AcDbSymbolTableRecord
100
AcDbLayerTableRecord
  2
Hatch
 70
     0
 62
     2
  6
Continuous
370
    20
390
F
  0
LAYER
  5
176
330
2
100
AcDbSymbolTableRecord
100
AcDbLayerTableRecord
  2
DEFPOINTS
 70
     0
 62
   210
  6
Continuous
290
     0
370
    -3
390
F
  0
LAYER
  5
15F8
330
2
100
AcDbSymbolTableRecord
100
AcDbLayerTableRecord
  2
Border
 70
     0
 62
     7
  6
Continuous
370
    50
390
F
1001
AcAecLayerStandard
1000

1000

  0
LAYER
  5
162D
102
{ACAD_XDICTIONARY
360
162E
102
}
330
2
100
AcDbSymbolTableRecord
100
AcDbLayerTableRecord
  2
3
 70
     0
 62
     2
  6
Continuous
370
    -3
390
F
1001
RAK
1000
{ACET-LAYISO
1070
     0
1070
     2
1000
CONTINUOUS
1070
     1
1071
       -3
1071
        1
1005
0
1000
ACET-LAYISO}
  0
LAYER
  5
162F
102
{ACAD_XDICTIONARY
360
1630
102
}
330
2
100
AcDbSymbolTableRecord
100
AcDbLayerTableRecord
  2
Title block
 70
     0
 62
     7
  6
Continuous
370
    80
390
F
  0
LAYER
  5
16E2
330
2
100
AcDbSymbolTableRecord
100
AcDbLayerTableRecord
  2
Adhesive
 70
     0
 62
    21
  6
Continuous
370
    70
390
F
1001
AcAecLayerStandard
1000

1000

  0
LAYER
  5
19F1
330
2
100
AcDbSymbolTableRecord
100
AcDbLayerTableRecord
  2
Timber Hatch
 70
     0
 62
    33
  6
Continuous
370
    20
390
F
1001
AcAecLayerStandard
1000

1000

  0
LAYER
  5
1DCB
102
{ACAD_XDICTIONARY
360
1DCC
102
}
330
2
100
AcDbSymbolTableRecord
100
AcDbLayerTableRecord
  2
TEXT
 70
     0
 62
     7
  6
Continuous
370
    -3
390
F
  0
LAYER
  5
1A97A
102
{ACAD_XDICTIONARY
360
1A97B
102
}
330
2
100
AcDbSymbolTableRecord
100
AcDbLayerTableRecord
  2
Dims
 70
     0
 62
     7
  6
Continuous
370
    -3
390
F
  0
LAYER
  5
1AA3C
102
{ACAD_XDICTIONARY
360
1AA3D
102
}
330
2
100
AcDbSymbolTableRecord
100
AcDbLayerTableRecord
  2
Hebel @ 1
 70
     0
 62
     7
  6
Continuous
370
    50
390
F
1001
AcAecLayerStandard
1000

1000

1001
AcadAnnotativeDecomposition
1000
AnnotativeData
1002
{
1070
     1
1070
     1
1002
}
  0
LAYER
  5
1AA3F
102
{ACAD_XDICTIONARY
360
1AA40
102
}
330
2
100
AcDbSymbolTableRecord
100
AcDbLayerTableRecord
  2
TEXT @ 1
 70
     0
 62
     7
  6
Continuous
370
    -3
390
F
1001
AcadAnnotativeDecomposition
1000
AnnotativeData
1002
{
1070
     1
1070
     1
1002
}
  0
ENDTAB
  0
TABLE
  2
STYLE
  5
3
330
0
100
AcDbSymbolTable
 70
     8
  0
STYLE
  5
11
330
3
100
AcDbSymbolTableRecord
100
AcDbTextStyleTableRecord
  2
Standard
 70
     0
 40
0.0
 41
1.0
 50
0.0
 71
     0
 42
0.2
  3
swiss.ttf
  4

1001
ACAD
1000
Swis721 BT
1071
       34
  0
STYLE
  5
243
330
3
100
AcDbSymbolTableRecord
100
AcDbTextStyleTableRecord
  2
1
 70
     0
 40
2.5
 41
1.0
 50
0.0
 71
     0
 42
2.5
  3
swissi.ttf
  4

1001
ACAD
1000
Swis721 BT
1071
 16777250
  0
STYLE
  5
1631
330
3
100
AcDbSymbolTableRecord
100
AcDbTextStyleTableRecord
  2
ROMANS
 70
     0
 40
2.5
 41
1.0
 50
0.0
 71
     0
 42
2.5
  3
romans.shx
  4

  0
STYLE
  5
1632
330
3
100
AcDbSymbolTableRecord
100
AcDbTextStyleTableRecord
  2
Title block
 70
     0
 40
2.5
 41
1.0
 50
0.0
 71
     0
 42
2.5
  3
times.ttf
  4

1001
ACAD
1000
Times New Roman
1071
       18
  0
STYLE
  5
19E25
330
3
100
AcDbSymbolTableRecord
100
AcDbTextStyleTableRecord
  2
ATTR
 70
     0
 40
0.016387939192806
 41
0.8
 50
0.0
 71
     0
 42
0.016387939192806
  3
romans.shx
  4

  0
STYLE
  5
1A77E
330
3
100
AcDbSymbolTableRecord
100
AcDbTextStyleTableRecord
  2
Brochure50
 70
     0
 40
50.0
 41
1.0
 50
4.0
 71
     0
 42
50.0
  3
CALIST.TTF
  4

1001
ACAD
1000
Calisto MT
1071
       18
  0
STYLE
  5
1A77F
330
3
100
AcDbSymbolTableRecord
100
AcDbTextStyleTableRecord
  2
Titles
 70
     0
 40
4.0
 41
1.0
 50
0.0
 71
     0
 42
4.0
  3
timesbd.ttf
  4

1001
ACAD
1000
Times New Roman
1071
 33554450
  0
ENDTAB
  0
TABLE
  2
VIEW
  5
6
330
0
100
AcDbSymbolTable
 70
     1
  0
ENDTAB
  0
TABLE
  2
UCS
  5
7
330
0
100
AcDbSymbolTable
 70
     0
  0
ENDTAB
  0
TABLE
  2
APPID
  5
9
330
0
100
AcDbSymbolTable
 70
    32
  0
APPID
  5
12
330
9
100
AcDbSymbolTableRecord
100
AcDbRegAppTableRecord
  2
ACAD
 70
     0
  0
APPID
  5
DD
330
9
100
AcDbSymbolTableRecord
100
AcDbRegAppTableRecord
  2
AcadAnnoPO
 70
     0
  0
APPID
  5
DE
330
9
100
AcDbSymbolTableRecord
100
AcDbRegAppTableRecord
  2
AcadAnnotative
 70
     0
  0
APPID
  5
DF
330
9
100
AcDbSymbolTableRecord
100
AcDbRegAppTableRecord
  2
ACAD_DSTYLE_DIMJAG
 70
     0
  0
APPID
  5
E0
330
9
100
AcDbSymbolTableRecord
100
AcDbRegAppTableRecord
  2
ACAD_DSTYLE_DIMTALN
 70
     0
  0
APPID
  5
107
330
9
100
AcDbSymbolTableRecord
100
AcDbRegAppTableRecord
  2
ACAD_MLEADERVER
 70
     0
  0
APPID
  5
172
330
9
100
AcDbSymbolTableRecord
100
AcDbRegAppTableRecord
  2
AcAecLayerStandard
 70
     0
  0
APPID
  5
178
330
9
100
AcDbSymbolTableRecord
100
AcDbRegAppTableRecord
  2
PROGE_PRINT_SETTINGS
 70
     0
  0
APPID
  5
18C
330
9
100
AcDbSymbolTableRecord
100
AcDbRegAppTableRecord
  2
ACAD_EXEMPT_FROM_CAD_STANDARDS
 70
     0
  0
APPID
  5
1BA
330
9
100
AcDbSymbolTableRecord
100
AcDbRegAppTableRecord
  2
ACAD_PSEXT
 70
     0
  0
APPID
  5
241
330
9
100
AcDbSymbolTableRecord
100
AcDbRegAppTableRecord
  2
ACAD_DSTYLE_DIMBREAK
 70
     0
  0
APPID
  5
245
330
9
100
AcDbSymbolTableRecord
100
AcDbRegAppTableRecord
  2
ACAD_DIMASSOC_CALC_DIMLFAC
 70
     0
  0
APPID
  5
246
330
9
100
AcDbSymbolTableRecord
100
AcDbRegAppTableRecord
  2
ACAD_DIMASSOC_DIMLFAC
 70
     0
  0
APPID
  5
247
330
9
100
AcDbSymbolTableRecord
100
AcDbRegAppTableRecord
  2
ACAD_DIMASSOC_OVERRIDDEN_DIMLFAC
 70
     0
  0
APPID
  5
111D
330
9
100
AcDbSymbolTableRecord
100
AcDbRegAppTableRecord
  2
RAK
 70
     0
  0
APPID
  5
111E
330
9
100
AcDbSymbolTableRecord
100
AcDbRegAppTableRecord
  2
DCO15
 70
     0
  0
APPID
  5
111F
330
9
100
AcDbSymbolTableRecord
100
AcDbRegAppTableRecord
  2
ACAD_DSTYLE_DIMTEXT_FILL
 70
     0
  0
APPID
  5
1120
330
9
100
AcDbSymbolTableRecord
100
AcDbRegAppTableRecord
  2
ACAD_DSTYLE_DIMEXT_LENGTH
 70
     0
  0
APPID
  5
1121
330
9
100
AcDbSymbolTableRecord
100
AcDbRegAppTableRecord
  2
ACAD_DSTYLE_DIMEXT_ENABLED
 70
     0
  0
APPID
  5
1122
330
9
100
AcDbSymbolTableRecord
100
AcDbRegAppTableRecord
  2
ACAD_DSTYLE_DIM_LINETYPE
 70
     0
  0
APPID
  5
1123
330
9
100
AcDbSymbolTableRecord
100
AcDbRegAppTableRecord
  2
ACAD_DSTYLE_DIM_EXT1_LINETYPE
 70
     0
  0
APPID
  5
1124
330
9
100
AcDbSymbolTableRecord
100
AcDbRegAppTableRecord
  2
ACAD_DSTYLE_DIM_EXT2_LINETYPE
 70
     0
  0
APPID
  5
1125
330
9
100
AcDbSymbolTableRecord
100
AcDbRegAppTableRecord
  2
ACAD_DSTYLE_DIMJOGGED_JOGANGLE_SYMBOL
 70
     0
  0
APPID
  5
1126
330
9
100
AcDbSymbolTableRecord
100
AcDbRegAppTableRecord
  2
ACAD_DSTYLE_DIMARC_LENGTH_SYMBOL
 70
     0
  0
APPID
  5
1127
330
9
100
AcDbSymbolTableRecord
100
AcDbRegAppTableRecord
  2
AcDbDynamicBlockGUID
 70
     0
  0
APPID
  5
1128
330
9
100
AcDbSymbolTableRecord
100
AcDbRegAppTableRecord
  2
AcDbBlockRepETag
 70
     0
  0
APPID
  5
1129
330
9
100
AcDbSymbolTableRecord
100
AcDbRegAppTableRecord
  2
ACAUTHENVIRON
 70
     0
  0
APPID
  5
112A
330
9
100
AcDbSymbolTableRecord
100
AcDbRegAppTableRecord
  2
AcDbDynamicBlockTrueName
 70
     0
  0
APPID
  5
1634
330
9
100
AcDbSymbolTableRecord
100
AcDbRegAppTableRecord
  2
PCAD_LAYOUT
 70
     0
  0
APPID
  5
1635
330
9
100
AcDbSymbolTableRecord
100
AcDbRegAppTableRecord
  2
AcDbAttr
 70
     0
  0
APPID
  5
11BA3
330
9
100
AcDbSymbolTableRecord
100
AcDbRegAppTableRecord
  2
AcadAnnotativeDecomposition
 70
     0
  0
APPID
  5
1A780
330
9
100
AcDbSymbolTableRecord
100
AcDbRegAppTableRecord
  2
ACAD_NAV_VCDISPLAY
 70
     0
  0
ENDTAB
  0
TABLE
  2
DIMSTYLE
  5
A
330
0
100
AcDbSymbolTable
 70
     5
100
AcDbDimStyleTable
 71
     2
340
242
340
27
  0
DIMSTYLE
105
27
330
A
100
AcDbSymbolTableRecord
100
AcDbDimStyleTableRecord
  2
Standard
 70
     0
 40
0.0
 41
3.0
 42
1.0
 43
1.0
 44
1.0
 73
     0
 74
     0
 77
     1
140
2.5
147
1.0
176
   256
177
   256
178
   256
271
     0
272
     0
340
11
1001
ACAD_DSTYLE_DIMJAG
1070
   388
1040
1.5
1001
ACAD_DSTYLE_DIMTALN
1070
   392
1070
     0
  0
DIMSTYLE
105
242
330
A
100
AcDbSymbolTableRecord
100
AcDbDimStyleTableRecord
  2
1
 70
     0
 40
0.0
 41
3.0
 42
1.0
 43
1.0
 44
1.0
 73
     0
 74
     0
 77
     1
140
2.5
147
1.0
176
   256
177
   256
178
   256
271
     0
272
     0
340
243
1001
ACAD_DSTYLE_DIMBREAK
1070
   391
1040
0.125
1001
AcadAnnotative
1000
AnnotativeData
1002
{
1070
     1
1070
     1
1002
}
1001
ACAD_DSTYLE_DIMJAG
1070
   388
1040
1.5
1001
ACAD_DSTYLE_DIMTALN
1070
   392
1070
     0
  0
DIMSTYLE
105
1A97C
330
A
100
AcDbSymbolTableRecord
100
AcDbDimStyleTableRecord
  2
ARROWS
 70
     0
 41
6.599999999999999
 42
1.5
 43
8.0
 44
1.0
 46
1.0
 73
     0
 74
     0
140
2.0
141
5.0
143
0.0394
145
1.0
146
0.625
147
1.5
171
     4
176
     1
177
     1
178
     1
271
     3
272
     3
274
     4
279
     2
340
1631
  0
DIMSTYLE
105
1A97D
330
A
100
AcDbSymbolTableRecord
100
AcDbDimStyleTableRecord
  2
Hebel 1
 70
     0
 41
2.0
 42
10.0
 43
10.0
 44
10.0
 46
10.0
 73
     0
 74
     0
 77
     1
 78
     8
140
2.5
141
2.5
143
0.03937007874016
147
10.0
171
     3
172
     1
271
     0
272
     0
274
     3
279
     1
283
     0
284
     8
340
1A77E
342
1A778
1001
ACAD_DSTYLE_DIMEXT_LENGTH
1070
   378
1040
10.0
1001
ACAD_DSTYLE_DIMJOGGED_JOGANGLE_SYMBOL
1070
   384
1040
1.570796326794896
  0
ENDTAB
  0
TABLE
  2
BLOCK_RECORD
  5
1
330
0
100
AcDbSymbolTable
 70
     7
  0
BLOCK_RECORD
  5
1F
102
{ACAD_XDICTIONARY
360
15D
102
}
330
1
100
AcDbSymbolTableRecord
100
AcDbBlockTableRecord
  2
*Model_Space
340
22
  0
BLOCK_RECORD
  5
1E4C
102
{ACAD_XDICTIONARY
360
19104
102
}
330
1
100
AcDbSymbolTableRecord
100
AcDbBlockTableRecord
  2
*Paper_Space
340
1E9F
  0
BLOCK_RECORD
  5
1636
102
{ACAD_XDICTIONARY
360
164D
102
}
330
1
100
AcDbSymbolTableRecord
100
AcDbBlockTableRecord
  2
A4 Title Block
340
0
102
{BLKREFS
331
1E60
102
}
1001
ACAD
1000
DesignCenter Data
1002
{
1070
     1
1070
     4
1002
}
  0
BLOCK_RECORD
  5
19E09
330
1
100
AcDbSymbolTableRecord
100
AcDbBlockTableRecord
  2
M12 Hex Nut Sv
340
0
310
28000000200000002000000001000800000000000004000000000000000000000000000000000000000000004000000080000000FF000000002000004020000080200000FF200000004000004040000080400000FF400000006000004060000080600000FF600000008000004080000080800000FF80000000A0000040A000
310
0080A00000FFA0000000C0000040C0000080C00000FFC0000000FF000040FF000080FF0000FFFF0000000020004000200080002000FF002000002020004020200080202000FF202000004020004040200080402000FF402000006020004060200080602000FF602000008020004080200080802000FF80200000A0200040A0
310
200080A02000FFA0200000C0200040C0200080C02000FFC0200000FF200040FF200080FF2000FFFF2000000040004000400080004000FF004000002040004020400080204000FF204000004040004040400080404000FF404000006040004060400080604000FF604000008040004080400080804000FF80400000A0400040
310
A0400080A04000FFA0400000C0400040C0400080C04000FFC0400000FF400040FF400080FF4000FFFF4000000060004000600080006000FF006000002060004020600080206000FF206000004060004040600080406000FF406000006060004060600080606000FF606000008060004080600080806000FF80600000A06000
310
40A0600080A06000FFA0600000C0600040C0600080C06000FFC0600000FF600040FF600080FF6000FFFF6000000080004000800080008000FF008000002080004020800080208000FF208000004080004040800080408000FF408000006080004060800080608000FF608000008080004080800080808000FF80800000A080
310
0040A0800080A08000FFA0800000C0800040C0800080C08000FFC0800000FF800040FF800080FF8000FFFF80000000A0004000A0008000A000FF00A0000020A0004020A0008020A000FF20A0000040A0004040A0008040A000FF40A0000060A0004060A0008060A000FF60A0000080A0004080A0008080A000FF80A00000A0
310
A00040A0A00080A0A000FFA0A00000C0A00040C0A00080C0A000FFC0A00000FFA00040FFA00080FFA000FFFFA0000000C0004000C0008000C000FF00C0000020C0004020C0008020C000FF20C0000040C0004040C0008040C000FF40C0000060C0004060C0008060C000FF60C0000080C0004080C0008080C000FF80C00000
310
A0C00040A0C00080A0C000FFA0C00000C0C00040C0C00080C0C000FFC0C00000FFC00040FFC00080FFC000FFFFC0000000FF004000FF008000FF00FF00FF000020FF004020FF008020FF00FF20FF000040FF004040FF008040FF00FF40FF000060FF004060FF008060FF00FF60FF000080FF004080FF008080FF00FF80FF00
310
00A0FF0040A0FF0080A0FF00FFA0FF0000C0FF0040C0FF0080C0FF00FFC0FF0000FFFF0040FFFF0080FFFF00FFFFFF00FFFFFFFFFFFFFFFFFFFFFFFFFFFFFFFFFFFFFFFFFFFFFFFFFFFFFFFFFFFFFFFFFFFFFFFFFFFFFFFF00000000000000000000000000000000FFFFFFFFFFFFFFFFFFFFFFFFFFFFFFFF00FFFFFFFFFFFF
310
FFFFFFFFFFFFFFFF00FFFFFFFFFFFFFFFFFFFFFFFFFFFFFFFF00FFFFFFFFFFFFFFFFFFFFFFFFFFFF00FFFFFFFFFFFFFFFFFFFFFFFFFFFFFF00FFFFFFFFFFFFFFFFFFFFFFFFFFFFFFFF00FFFFFFFFFFFFFFFFFFFFFFFFFFFF00FFFFFFFFFFFFFFFFFFFFFFFFFFFFFFFF00FFFFFFFFFFFFFFFFFFFFFFFFFFFF00FFFFFFFFFFFF
310
FFFFFFFFFFFFFFFFFFFF00FFFFFFFFFFFFFFFFFFFFFFFFFFFF0000FFFFFFFFFFFFFFFFFFFFFFFFFFFF0000FFFFFFFFFFFFFFFFFFFFFFFFFFFF000000000000000000000000000000000000FFFFFFFFFFFFFFFFFFFFFFFFFFFF0000FFFFFFFFFFFFFFFFFFFFFFFFFFFF0000FFFFFFFFFFFFFFFFFFFFFFFFFFFF0000FFFFFFFF
310
FFFFFFFFFFFFFFFFFFFF0000FFFFFFFFFFFFFFFFFFFFFFFFFFFF00FFFFFFFFFFFFFFFFFFFFFFFFFFFFFFFF00FFFFFFFFFFFFFFFFFFFFFFFFFFFF00FFFFFFFFFFFFFFFFFFFFFFFFFFFFFFFF00FFFFFFFFFFFFFFFFFFFFFFFFFFFF00FFFFFFFFFFFFFFFFFFFFFFFFFFFFFFFF00FFFFFFFFFFFFFFFFFFFFFFFFFFFF00FFFFFFFF
310
FFFFFFFFFFFFFFFFFFFFFFFF00FFFFFFFFFFFFFFFFFFFFFFFFFFFF00FFFFFFFFFFFFFFFFFFFFFFFFFFFFFFFF00FFFFFFFFFFFFFFFFFFFFFFFFFFFF00FFFFFFFFFFFFFFFFFFFFFFFFFFFFFFFF00FFFFFFFFFFFFFFFFFFFFFFFFFFFF00FFFFFFFFFFFFFFFFFFFFFFFFFFFFFFFF00FFFFFFFFFFFFFFFFFFFFFFFFFFFF00FFFFFF
310
FFFFFFFFFFFFFFFFFFFFFFFFFF00FFFFFFFFFFFFFFFFFFFFFFFFFFFF00FFFFFFFFFFFFFFFFFFFFFFFFFFFFFFFF00FFFFFFFFFFFFFFFFFFFFFFFFFFFF00FFFFFFFFFFFFFFFFFFFFFFFFFFFFFFFF00FFFFFFFFFFFFFFFFFFFFFFFFFFFF0000FFFFFFFFFFFFFFFFFFFFFFFFFFFF0000FFFFFFFFFFFFFFFFFFFFFFFFFFFF0000FF
310
FFFFFFFFFFFFFFFFFFFFFFFFFF0000FFFFFFFFFFFFFFFFFFFFFFFFFFFF000000000000000000000000000000000000FFFFFFFFFFFFFFFFFFFFFFFFFFFF0000FFFFFFFFFFFFFFFFFFFFFFFFFFFF0000FFFFFFFFFFFFFFFFFFFFFFFFFFFF00FFFFFFFFFFFFFFFFFFFFFFFFFFFFFFFF00FFFFFFFFFFFFFFFFFFFFFFFFFFFF00FF
310
FFFFFFFFFFFFFFFFFFFFFFFFFFFFFF00FFFFFFFFFFFFFFFFFFFFFFFFFFFF00FFFFFFFFFFFFFFFFFFFFFFFFFFFFFFFF00FFFFFFFFFFFFFFFFFFFFFFFFFFFFFF00FFFFFFFFFFFFFFFFFFFFFFFFFFFF00FFFFFFFFFFFFFFFFFFFFFFFFFFFFFFFF00FFFFFFFFFFFFFFFFFFFFFFFFFFFF00FFFFFFFFFFFFFFFFFFFFFFFFFFFFFFFF
310
00000000000000000000000000000000FFFFFFFFFFFFFFFFFFFFFFFFFFFFFFFFFFFFFFFFFFFFFFFFFFFFFFFFFFFFFFFFFFFFFFFFFFFFFFFF
102
{BLKREFS
331
1A64E
102
}
  0
BLOCK_RECORD
  5
19E19
330
1
100
AcDbSymbolTableRecord
100
AcDbBlockTableRecord
  2
M12 Standard Washer Sv
340
0
310
28000000200000002000000001000800000000000004000000000000000000000000000000000000000000004000000080000000FF000000002000004020000080200000FF200000004000004040000080400000FF400000006000004060000080600000FF600000008000004080000080800000FF80000000A0000040A000
310
0080A00000FFA0000000C0000040C0000080C00000FFC0000000FF000040FF000080FF0000FFFF0000000020004000200080002000FF002000002020004020200080202000FF202000004020004040200080402000FF402000006020004060200080602000FF602000008020004080200080802000FF80200000A0200040A0
310
200080A02000FFA0200000C0200040C0200080C02000FFC0200000FF200040FF200080FF2000FFFF2000000040004000400080004000FF004000002040004020400080204000FF204000004040004040400080404000FF404000006040004060400080604000FF604000008040004080400080804000FF80400000A0400040
310
A0400080A04000FFA0400000C0400040C0400080C04000FFC0400000FF400040FF400080FF4000FFFF4000000060004000600080006000FF006000002060004020600080206000FF206000004060004040600080406000FF406000006060004060600080606000FF606000008060004080600080806000FF80600000A06000
310
40A0600080A06000FFA0600000C0600040C0600080C06000FFC0600000FF600040FF600080FF6000FFFF6000000080004000800080008000FF008000002080004020800080208000FF208000004080004040800080408000FF408000006080004060800080608000FF608000008080004080800080808000FF80800000A080
310
0040A0800080A08000FFA0800000C0800040C0800080C08000FFC0800000FF800040FF800080FF8000FFFF80000000A0004000A0008000A000FF00A0000020A0004020A0008020A000FF20A0000040A0004040A0008040A000FF40A0000060A0004060A0008060A000FF60A0000080A0004080A0008080A000FF80A00000A0
310
A00040A0A00080A0A000FFA0A00000C0A00040C0A00080C0A000FFC0A00000FFA00040FFA00080FFA000FFFFA0000000C0004000C0008000C000FF00C0000020C0004020C0008020C000FF20C0000040C0004040C0008040C000FF40C0000060C0004060C0008060C000FF60C0000080C0004080C0008080C000FF80C00000
310
A0C00040A0C00080A0C000FFA0C00000C0C00040C0C00080C0C000FFC0C00000FFC00040FFC00080FFC000FFFFC0000000FF004000FF008000FF00FF00FF000020FF004020FF008020FF00FF20FF000040FF004040FF008040FF00FF40FF000060FF004060FF008060FF00FF60FF000080FF004080FF008080FF00FF80FF00
310
00A0FF0040A0FF0080A0FF00FFA0FF0000C0FF0040C0FF0080C0FF00FFC0FF0000FFFF0040FFFF0080FFFF00FFFFFF00FFFFFFFFFFFFFFFFFFFFFFFFFFFFFFFFFFFFFFFFFFFFFFFFFFFFFFFFFFFFFFFFFFFFFFFFFFFFFFFFFFFFFFFFFFFF00000000FFFFFFFFFFFFFFFFFFFFFFFFFFFFFFFFFFFFFFFFFFFFFFFFFFFFFFFF00
310
FFFF00FFFFFFFFFFFFFFFFFFFFFFFFFFFFFFFFFFFFFFFFFFFFFFFFFFFFFFFF00FFFF00FFFFFFFFFFFFFFFFFFFFFFFFFFFFFFFFFFFFFFFFFFFFFFFFFFFFFFFF00FFFF00FFFFFFFFFFFFFFFFFFFFFFFFFFFFFFFFFFFFFFFFFFFFFFFFFFFFFFFF00FFFF00FFFFFFFFFFFFFFFFFFFFFFFFFFFFFFFFFFFFFFFFFFFFFFFFFFFFFFFF
310
00FFFF00FFFFFFFFFFFFFFFFFFFFFFFFFFFFFFFFFFFFFFFFFFFFFFFFFFFFFFFF00FFFF00FFFFFFFFFFFFFFFFFFFFFFFFFFFFFFFFFFFFFFFFFFFFFFFFFFFFFFFF00FFFF00FFFFFFFFFFFFFFFFFFFFFFFFFFFFFFFFFFFFFFFFFFFFFFFFFFFFFFFF00FFFF00FFFFFFFFFFFFFFFFFFFFFFFFFFFFFFFFFFFFFFFFFFFFFFFFFFFFFF
310
FF00000000FFFFFFFFFFFFFFFFFFFFFFFFFFFFFFFFFFFFFFFFFFFFFFFFFFFFFFFF00FFFF00FFFFFFFFFFFFFFFFFFFFFFFFFFFFFFFFFFFFFFFFFFFFFFFFFFFFFFFF00FFFF00FFFFFFFFFFFFFFFFFFFFFFFFFFFFFFFFFFFFFFFFFFFFFFFFFFFFFFFF00FFFF00FFFFFFFFFFFFFFFFFFFFFFFFFFFFFFFFFFFFFFFFFFFFFFFFFFFF
310
FFFF00FFFF00FFFFFFFFFFFFFFFFFFFFFFFFFFFFFFFFFFFFFFFFFFFFFFFFFFFFFFFF00FFFF00FFFFFFFFFFFFFFFFFFFFFFFFFFFFFFFFFFFFFFFFFFFFFFFFFFFFFFFF00FFFF00FFFFFFFFFFFFFFFFFFFFFFFFFFFFFFFFFFFFFFFFFFFFFFFFFFFFFFFF00FFFF00FFFFFFFFFFFFFFFFFFFFFFFFFFFFFFFFFFFFFFFFFFFFFFFFFF
310
FFFFFF00FFFF00FFFFFFFFFFFFFFFFFFFFFFFFFFFFFFFFFFFFFFFFFFFFFFFFFFFFFFFF00FFFF00FFFFFFFFFFFFFFFFFFFFFFFFFFFFFFFFFFFFFFFFFFFFFFFFFFFFFFFF00FFFF00FFFFFFFFFFFFFFFFFFFFFFFFFFFFFFFFFFFFFFFFFFFFFFFFFFFFFFFF00000000FFFFFFFFFFFFFFFFFFFFFFFFFFFFFFFFFFFFFFFFFFFFFFFF
310
FFFFFFFF00FFFF00FFFFFFFFFFFFFFFFFFFFFFFFFFFFFFFFFFFFFFFFFFFFFFFFFFFFFFFF00FFFF00FFFFFFFFFFFFFFFFFFFFFFFFFFFFFFFFFFFFFFFFFFFFFFFFFFFFFFFF00FFFF00FFFFFFFFFFFFFFFFFFFFFFFFFFFFFFFFFFFFFFFFFFFFFFFFFFFFFFFF00FFFF00FFFFFFFFFFFFFFFFFFFFFFFFFFFFFFFFFFFFFFFFFFFFFF
310
FFFFFFFFFF00FFFF00FFFFFFFFFFFFFFFFFFFFFFFFFFFFFFFFFFFFFFFFFFFFFFFFFFFFFFFF00FFFF00FFFFFFFFFFFFFFFFFFFFFFFFFFFFFFFFFFFFFFFFFFFFFFFFFFFFFFFF00FFFF00FFFFFFFFFFFFFFFFFFFFFFFFFFFFFFFFFFFFFFFFFFFFFFFFFFFFFFFF00FFFF00FFFFFFFFFFFFFFFFFFFFFFFFFFFFFFFFFFFFFFFFFFFF
310
FFFFFFFFFFFF00000000FFFFFFFFFFFFFFFFFFFFFFFFFFFFFFFFFFFFFFFFFFFFFFFFFFFFFFFFFFFFFFFFFFFFFFFFFFFFFFFFFFFFFFFFFFFF
102
{BLKREFS
331
1A660
102
}
  0
BLOCK_RECORD
  5
1A778
330
1
100
AcDbSymbolTableRecord
100
AcDbBlockTableRecord
  2
_ArchTick
340
0
  0
BLOCK_RECORD
  5
1A77B
330
1
100
AcDbSymbolTableRecord
100
AcDbBlockTableRecord
  2
_Dot
340
0
  0
ENDTAB
  0
ENDSEC
  0
SECTION
  2
BLOCKS
  0
BLOCK
  5
20
330
1F
100
AcDbEntity
  8
0
100
AcDbBlockBegin
  2
*Model_Space
 70
     0
 10
0.0
 20
0.0
 30
0.0
  3
*Model_Space
  1

  0
ENDBLK
  5
21
330
1F
100
AcDbEntity
  8
0
100
AcDbBlockEnd
  0
BLOCK
  5
1E4D
330
1E4C
100
AcDbEntity
 67
     1
  8
0
100
AcDbBlockBegin
  2
*Paper_Space
 70
     0
 10
0.0
 20
0.0
 30
0.0
  3
*Paper_Space
  1

  0
ENDBLK
  5
1E9E
330
1E4C
100
AcDbEntity
 67
     1
  8
0
100
AcDbBlockEnd
  0
BLOCK
  5
164F
330
1636
100
AcDbEntity
  8
0
100
AcDbBlockBegin
  2
A4 Title Block
 70
     2
 10
0.0
 20
0.0
 30
0.0
  3
A4 Title Block
  1

  0
TEXT
  5
1A888
330
1636
100
AcDbEntity
  8
3
 62
     7
100
AcDbText
 10
-853.4347976406543
 20
37.0581002795501
 30
0.0
 40
8.0
  1

 41
0.85
  7
ROMANS
100
AcDbText
  0
LINE
  5
1A889
330
1636
100
AcDbEntity
  8
Title block
100
AcDbLine
 10
-53.39424020223919
 20
255.4041454248354
 30
0.0
 11
-53.39424020223919
 21
-21.19891004925512
 31
0.0
  0
LINE
  5
1A88A
330
1636
100
AcDbEntity
  8
Title block
100
AcDbLine
 10
-53.39424020223919
 20
-21.19891004925512
 30
0.0
 11
136.6057597977608
 21
-21.19891004925512
 31
0.0
  0
LINE
  5
1A88B
330
1636
100
AcDbEntity
  8
Title block
100
AcDbLine
 10
136.6057597977608
 20
-21.19891004925512
 30
0.0
 11
136.6057597977608
 21
255.4041454248354
 31
0.0
  0
LINE
  5
1A88C
330
1636
100
AcDbEntity
  8
Title block
100
AcDbLine
 10
136.6057597977608
 20
255.4041454248354
 30
0.0
 11
-53.39424020223919
 21
255.4041454248354
 31
0.0
  0
LINE
  5
1A88D
330
1636
100
AcDbEntity
  8
Title block
100
AcDbLine
 10
5.322295774367375
 20
-4.874222230698382
 30
0.0
 11
136.7843384162145
 21
-4.874222230698268
 31
0.0
  0
LINE
  5
1A88E
330
1636
100
AcDbEntity
  8
Title block
100
AcDbLine
 10
5.322295774367375
 20
-13.90906182024323
 30
0.0
 11
136.7843384162147
 21
-13.90906182024311
 31
0.0
  0
TEXT
  5
1A88F
330
1636
100
AcDbEntity
  8
0
100
AcDbText
 10
9.675893772968493
 20
-10.49702363502333
 30
0.0
 40
2.5
  1
Date:
  7
Title block
100
AcDbText
  0
TEXT
  5
1A890
330
1636
100
AcDbEntity
  8
0
100
AcDbText
 10
91.38994071143883
 20
-10.43619006531175
 30
0.0
 40
2.5
  1
Detail No.
  7
Title block
100
AcDbText
  0
TEXT
  5
1A891
330
1636
100
AcDbEntity
  8
0
100
AcDbText
 10
9.502250865730047
 20
7.648243604712661
 30
0.0
 40
2.5
  1
Title:
  7
Title block
100
AcDbText
  0
LWPOLYLINE
  5
1A892
330
1636
100
AcDbEntity
  8
Title block
100
AcDbPolyline
 90
        2
 70
     0
 43
0.0
 10
-53.39424020223919
 20
12.10448104516263
 10
136.6057597977608
 20
12.10448104516263
  0
MTEXT
  5
1A893
102
{ACAD_XDICTIONARY
360
1A894
102
}
330
1636
100
AcDbEntity
  8
Title block
100
AcDbMText
 10
14.79050876047949
 20
-16.12152541929011
 30
0.0
 40
2.0
 41
162.2032764939204
 71
     1
 72
     1
  1
This drawing must be read in conjunction with all the Supercrete\U+2122 Soundfloor Design Guide
  7
Title block
 73
     1
 44
1.0
  0
LWPOLYLINE
  5
1A895
330
1636
100
AcDbEntity
  8
Title block
100
AcDbPolyline
 90
        2
 70
     0
 43
0.0
 10
46.71209860759859
 20
-4.874222230698379
 10
46.71209860759859
 20
-13.90906182024323
  0
LWPOLYLINE
  5
1A896
330
1636
100
AcDbEntity
  8
Title block
100
AcDbPolyline
 90
        2
 70
     0
 43
0.0
 10
89.74925677747592
 20
-4.874222230698309
 10
89.74925677747592
 20
-13.90906182024316
  0
TEXT
  5
1A897
330
1636
100
AcDbEntity
  8
0
100
AcDbText
 10
51.06569660619993
 20
-10.49702363502333
 30
0.0
 40
2.5
  1
Scale:
  7
Title block
100
AcDbText
  0
ATTDEF
  5
1A898
330
1636
100
AcDbEntity
  8
Title block
100
AcDbText
 10
39.57990030128394
 20
4.955571898516836
 30
0.0
 40
4.0
  1

100
AcDbAttributeDefinition
  3
Title
  2
TITLE
 70
     0
1001
AcDbAttr
1070
     0
1070
     1
  0
ATTDEF
  5
1A899
330
1636
100
AcDbEntity
  8
Title block
100
AcDbText
 10
20.96937096573947
 20
-10.66735272847677
 30
0.0
 40
2.5
  1

100
AcDbAttributeDefinition
  3
Date
  2
DATE
 70
     0
1001
AcDbAttr
1070
     0
1070
     1
  0
ATTDEF
  5
1A89A
330
1636
100
AcDbEntity
  8
Title block
100
AcDbText
 10
63.23629700150786
 20
-10.66735272847677
 30
0.0
 40
2.5
  1

100
AcDbAttributeDefinition
  3
Scale
  2
SCALE
 70
     0
1001
AcDbAttr
1070
     0
1070
     1
  0
ATTDEF
  5
1A89B
330
1636
100
AcDbEntity
  8
Title block
100
AcDbText
 10
111.1388136280311
 20
-10.33601335752655
 30
0.0
 40
2.5
  1

100
AcDbAttributeDefinition
  3
Drg No
  2
DRGNO
 70
     0
1001
AcDbAttr
1070
     0
1070
     1
  0
ATTDEF
  5
1A89C
330
1636
100
AcDbEntity
  8
Title block
100
AcDbText
 10
39.57990030128394
 20
-1.899762361248804
 30
0.0
 40
4.0
  1

100
AcDbAttributeDefinition
  3
Title2
  2
TITLE2
 70
     0
1001
AcDbAttr
1070
     0
1070
     1
  0
LINE
  5
1A89D
330
1636
100
AcDbEntity
  8
Title block
100
AcDbLine
 10
5.322295774367375
 20
12.10448104516263
 30
0.0
 11
5.322295774367376
 21
-21.19891004925512
 31
0.0
  0
MTEXT
  5
1A89E
102
{ACAD_XDICTIONARY
360
1A89F
102
}
330
1636
100
AcDbEntity
  8
TEXT
100
AcDbMText
 10
-52.13922145196975
 20
-3.055359643668765
 30
0.0
 40
3.0
 41
55.49050343911358
 71
     1
 72
     5
  1
\pi12.178;SOUNDFLOOR \P\pi9.755;CONSTRUCTION
  7
Titles
 73
     1
 44
1.0
1001
ACAD
1000
ACAD_MTEXT_COLUMN_INFO_BEGIN
1070
    75
1070
     2
1070
    79
1070
     0
1070
    76
1070
     1
1070
    78
1070
     0
1070
    48
1040
55.49050343911358
1070
    49
1040
12.5
1070
    50
1070
     1
1040
0.0
1000
ACAD_MTEXT_COLUMN_INFO_END
  0
IMAGE
  5
1A8A0
330
1636
100
AcDbEntity
  8
0
 92
      140
310
8C0000000100000084000000060000000500000060B1837676B24AC0509BAD3DFAFFF1BF000000000000000060B1837676B24AC0010D208A7E3528400000000000000000F02F4AE7074A1540010D208A7E3528400000000000000000F02F4AE7074A1540509BAD3DFAFFF1BF000000000000000060B1837676B24AC0509BAD
310
3DFAFFF1BF0000000000000000
100
AcDbRasterImage
 90
        0
 10
-53.39424020223919
 20
-1.124994507723119
 30
0.0
 11
0.0429528427041745
 21
0.0
 31
0.0
 12
0.0
 22
0.0429528427041745
 32
0.0
 13
1367.0
 23
308.0
340
1A79C
 70
     7
280
     0
281
    50
282
    50
283
     0
360
1A8A1
 71
     1
 91
        2
 14
-0.5
 24
-0.5
 14
1366.5
 24
307.5
  0
ENDBLK
  5
1650
330
1636
100
AcDbEntity
  8
0
100
AcDbBlockEnd
  0
BLOCK
  5
19E0A
330
19E09
100
AcDbEntity
  8
0
100
AcDbBlockBegin
  2
M12 Hex Nut Sv
 70
     2
 10
0.0
 20
0.0
 30
0.0
  3
M12 Hex Nut Sv
  1

  0
ATTDEF
  5
19E0B
330
19E09
100
AcDbEntity
  8
0
100
AcDbText
 10
0.0
 20
0.0
 30
0.0
 40
0.0001671752903694
  1

 41
0.8
  7
ATTR
100
AcDbAttributeDefinition
  3

  2
ESTCODE
 70
     9
  0
ARC
  5
19E0C
330
19E09
100
AcDbEntity
  8
0
  6
Continuous
100
AcDbCircle
 10
-0.2839655659260003
 20
-0.3068587799820007
 30
0.0
 40
0.188474434074
100
AcDbArc
 50
147.13278
 51
212.86722
  0
LINE
  5
19E0D
330
19E09
100
AcDbEntity
  8
0
  6
Continuous
100
AcDbLine
 10
-0.4724400000000001
 20
-0.3068587799820007
 30
0.0
 11
-0.4724400000000001
 21
0.3068587799819993
 31
0.0
  0
ARC
  5
19E0E
330
19E09
100
AcDbEntity
  8
0
  6
Continuous
100
AcDbCircle
 10
-0.1884744340739997
 20
-0.3068587799820007
 30
0.0
 40
0.188474434074
100
AcDbArc
 50
327.1327800000001
 51
32.86722000000004
  0
LINE
  5
19E0F
330
19E09
100
AcDbEntity
  8
0
  6
Continuous
100
AcDbLine
 10
0.0
 20
-0.3068587799820004
 30
0.0
 11
0.0
 21
0.3068587799819993
 31
0.0
  0
LINE
  5
19E10
330
19E09
100
AcDbEntity
  8
0
  6
Continuous
100
AcDbLine
 10
-0.0301746719339993
 20
-0.4091450281650007
 30
0.0
 11
-0.4422653280659996
 21
-0.409145028165001
 31
0.0
  0
ARC
  5
19E11
330
19E09
100
AcDbEntity
  8
0
  6
Continuous
100
AcDbCircle
 10
0.2362199999999989
 20
-0.0000000000000006
 30
0.0
 40
0.7086600000000001
100
AcDbArc
 50
163.22135
 51
196.77865
  0
ARC
  5
19E12
330
19E09
100
AcDbEntity
  8
0
  6
Continuous
100
AcDbCircle
 10
-0.7086600000000001
 20
-0.0000000000000011
 30
0.0
 40
0.7086600000000001
100
AcDbArc
 50
343.2213500000002
 51
16.77865000000007
  0
LINE
  5
19E13
330
19E09
100
AcDbEntity
  8
0
  6
Continuous
100
AcDbLine
 10
-0.0301746719340004
 20
-0.2045724963660007
 30
0.0
 11
-0.4422653280659996
 21
-0.2045724963660009
 31
0.0
  0
LINE
  5
19E14
330
19E09
100
AcDbEntity
  8
0
  6
Continuous
100
AcDbLine
 10
-0.0301746719340004
 20
0.2045724963659993
 30
0.0
 11
-0.4422653280659996
 21
0.2045724963659993
 31
0.0
  0
LINE
  5
19E15
330
19E09
100
AcDbEntity
  8
0
  6
Continuous
100
AcDbLine
 10
-0.0301746719340004
 20
0.4091450281649993
 30
0.0
 11
-0.4422653280660008
 21
0.4091450281649993
 31
0.0
  0
ARC
  5
19E16
330
19E09
100
AcDbEntity
  8
0
  6
Continuous
100
AcDbCircle
 10
-0.2839655659260003
 20
0.3068587799819993
 30
0.0
 40
0.188474434074
100
AcDbArc
 50
147.13278
 51
212.86722
  0
ARC
  5
19E17
330
19E09
100
AcDbEntity
  8
0
  6
Continuous
100
AcDbCircle
 10
-0.1884744340739997
 20
0.3068587799819993
 30
0.0
 40
0.188474434074
100
AcDbArc
 50
327.1327800000001
 51
32.86722000000004
  0
ENDBLK
  5
19E18
330
19E09
100
AcDbEntity
  8
0
100
AcDbBlockEnd
  0
BLOCK
  5
19E1A
330
19E19
100
AcDbEntity
  8
0
100
AcDbBlockBegin
  2
M12 Standard Washer Sv
 70
     2
 10
0.0
 20
0.0
 30
0.0
  3
M12 Standard Washer Sv
  1

  0
ATTDEF
  5
19E1B
330
19E19
100
AcDbEntity
  8
0
100
AcDbText
 10
0.0
 20
0.0
 30
0.0
 40
0.0003349113442061
  1

 41
0.8
  7
ATTR
100
AcDbAttributeDefinition
  3

  2
ESTCODE
 70
     9
  0
LINE
  5
19E1C
330
19E19
100
AcDbEntity
  8
0
  6
Continuous
100
AcDbLine
 10
0.0
 20
0.6692900000000002
 30
0.0
 11
0.0
 21
-0.6692900000000001
 31
0.0
  0
LINE
  5
19E1D
330
19E19
100
AcDbEntity
  8
0
  6
Continuous
100
AcDbLine
 10
-0.137795
 20
0.6692900000000002
 30
0.0
 11
-0.137795
 21
-0.6692900000000001
 31
0.0
  0
LINE
  5
19E1E
330
19E19
100
AcDbEntity
  8
0
  6
Continuous
100
AcDbLine
 10
-0.137795
 20
-0.6692900000000001
 30
0.0
 11
0.0
 21
-0.6692900000000001
 31
0.0
  0
LINE
  5
19E1F
330
19E19
100
AcDbEntity
  8
0
  6
DASHED
100
AcDbLine
 10
-0.137795
 20
-0.2671254499999999
 30
0.0
 11
0.0
 21
-0.2671254499999999
 31
0.0
  0
LINE
  5
19E20
330
19E19
100
AcDbEntity
  8
0
  6
DASHED
100
AcDbLine
 10
-0.137795
 20
0.2671254500000002
 30
0.0
 11
0.0
 21
0.2671254500000002
 31
0.0
  0
LINE
  5
19E21
330
19E19
100
AcDbEntity
  8
0
  6
Continuous
100
AcDbLine
 10
-0.137795
 20
0.6692900000000002
 30
0.0
 11
0.0
 21
0.6692900000000002
 31
0.0
  0
ENDBLK
  5
19E22
330
19E19
100
AcDbEntity
  8
0
100
AcDbBlockEnd
  0
BLOCK
  5
1A779
330
1A778
100
AcDbEntity
  8
0
100
AcDbBlockBegin
  2
_ArchTick
 70
     0
 10
0.0
 20
0.0
 30
0.0
  3
_ArchTick
  1

  0
ENDBLK
  5
1A77A
330
1A778
100
AcDbEntity
  8
0
100
AcDbBlockEnd
  0
BLOCK
  5
1A77C
330
1A77B
100
AcDbEntity
  8
0
100
AcDbBlockBegin
  2
_Dot
 70
     0
 10
0.0
 20
0.0
 30
0.0
  3
_Dot
  1

  0
ENDBLK
  5
1A77D
330
1A77B
100
AcDbEntity
  8
0
100
AcDbBlockEnd
  0
ENDSEC
  0
SECTION
  2
ENTITIES
  0
LINE
  5
19D1C
330
1F
100
AcDbEntity
  8
DEFPOINTS
100
AcDbLine
 10
9957.140639084544
 20
-766.3413366437944
 30
0.0
 11
10238.00616577682
 21
-766.3413366437944
 31
0.0
  0
LINE
  5
1A52C
330
1F
100
AcDbEntity
  8
DEFPOINTS
100
AcDbLine
 10
9598.733385368211
 20
-586.3413366437925
 30
0.0
 11
9598.733385368211
 21
-766.3413366437944
 31
0.0
  0
HATCH
  5
1A52D
330
1F
100
AcDbEntity
  8
Hatch
 62
     8
100
AcDbHatch
 10
0.0
 20
0.0
 30
0.0
210
0.0
220
0.0
230
1.0
  2
AR-SAND
 70
     0
 71
     0
 91
        3
 92
        7
 72
     0
 73
     1
 93
       49
 10
9756.784970709475
 20
-515.9856682687277
 10
9754.140639084541
 20
-513.3413366437943
 10
9752.640639084541
 20
-513.3413366437962
 10
9752.640639084541
 20
-508.3413366437926
 10
9598.733385368209
 20
-508.3413366437962
 10
9598.733385368209
 20
-583.3413366437944
 10
9756.784970709475
 20
-583.3413366437962
 10
9756.784970709475
 20
-582.4288233868937
 10
9756.354630200348
 20
-582.2631840288595
 10
9756.784970709475
 20
-581.8987774411907
 10
9756.784970709475
 20
-580.9527282052058
 10
9756.354630200348
 20
-580.7870888471716
 10
9756.784970709475
 20
-580.422682259501
 10
9756.784970709475
 20
-579.5109608184357
 10
9756.354630200348
 20
-579.3453214604051
 10
9756.784970709475
 20
-578.9809148727327
 10
9756.784970709475
 20
-578.1035169505848
 10
9756.354630200348
 20
-577.9378775925506
 10
9756.784970709475
 20
-577.5734710048818
 10
9756.784970709475
 20
-576.6696709159532
 10
9756.423235646353
 20
-576.5304380007073
 10
9756.784970709475
 20
-576.2241255871686
 10
9756.784970709475
 20
-575.3916211516662
 10
9756.354630200348
 20
-575.2259817936319
 10
9756.784970709475
 20
-574.8615752059631
 10
9756.784970709475
 20
-573.9498537648978
 10
9756.354630200348
 20
-573.7842144068672
 10
9756.784970709475
 20
-573.4198078191948
 10
9756.784970709475
 20
-572.4051029933616
 10
9756.354630200348
 20
-572.239463635331
 10
9756.784970709475
 20
-571.8750570476568
 10
9756.784970709475
 20
-570.8946800167487
 10
9756.354630200348
 20
-570.7290406587162
 10
9756.784970709475
 20
-570.3646340710474
 10
9756.784970709475
 20
-569.4185848350607
 10
9756.354630200348
 20
-569.2529454770265
 10
9756.784970709475
 20
-568.8885388893577
 10
9756.784970709475
 20
-567.9768174482924
 10
9756.354630200348
 20
-567.8111780902599
 10
9756.784970709475
 20
-567.4467715025875
 10
9756.784970709475
 20
-566.569373580438
 10
9756.354630200348
 20
-566.4037342224073
 10
9756.784970709475
 20
-566.0393276347349
 10
9756.784970709475
 20
-565.1355275458081
 10
9756.423235646352
 20
-564.9962946305604
 10
9756.784970709475
 20
-564.6899822170253
 10
9756.784970709475
 20
-563.857477781521
 10
9756.354630200348
 20
-563.6918384234887
 10
9756.784970709475
 20
-563.3274318358198
 97
        0
 92
        1
 93
        4
 72
     1
 10
9918.14062708454
 20
-508.3413366437944
 11
9918.14062708454
 21
-583.3413366437926
 72
     1
 10
9918.14062708454
 20
-583.3413366437926
 11
9957.140639084542
 21
-583.3413366437926
 72
     1
 10
9957.140639084542
 20
-583.3413366437926
 11
9957.140639084542
 21
-508.3413366437944
 72
     1
 10
9957.140639084542
 20
-508.3413366437944
 11
9918.14062708454
 21
-508.3413366437944
 97
        0
 92
        1
 93
       51
 72
     1
 10
9906.140651084541
 20
-583.3413366437926
 11
9906.140651084541
 21
-508.3413366437944
 72
     1
 10
9906.140651084541
 20
-508.3413366437944
 11
9762.640639084541
 21
-508.3413366437944
 72
     1
 10
9762.640639084541
 20
-508.3413366437944
 11
9762.640639084541
 21
-513.3413366437943
 72
     1
 10
9762.640639084541
 20
-513.3413366437943
 11
9761.140639084544
 21
-513.3413366437943
 72
     1
 10
9761.140639084544
 20
-513.3413366437943
 11
9758.49630745961
 21
-515.9856682687277
 72
     1
 10
9758.496307459608
 20
-515.9856682687277
 11
9758.496307459608
 21
-562.902299140258
 72
     1
 10
9758.496307459608
 20
-562.902299140258
 11
9758.993446391805
 21
-562.9022991402562
 72
     1
 10
9758.993446391805
 20
-562.9022991402562
 11
9758.496307459608
 21
-563.438079902562
 72
     1
 10
9758.496307459608
 20
-563.438079902562
 11
9758.496307459608
 21
-564.2067553473316
 72
     1
 10
9758.496307459608
 20
-564.2067553473316
 11
9759.062051837808
 21
-564.2067553473334
 72
     1
 10
9759.062051837808
 20
-564.2067553473334
 11
9758.496307459608
 21
-564.8164741494438
 72
     1
 10
9758.496307459608
 20
-564.8164741494438
 11
9758.496307459608
 21
-565.6141949391767
 72
     1
 10
9758.496307459608
 20
-565.6141949391767
 11
9758.993446391807
 21
-565.6141949391767
 72
     1
 10
9758.993446391805
 20
-565.6141949391767
 11
9758.496307459608
 21
-566.1499757014825
 72
     1
 10
9758.496307459608
 20
-566.1499757014825
 11
9758.496307459608
 21
-567.0216388070294
 72
     1
 10
9758.496307459608
 20
-567.0216388070294
 11
9758.993446391805
 21
-567.0216388070294
 72
     1
 10
9758.993446391805
 20
-567.0216388070294
 11
9758.496307459608
 21
-567.5574195693315
 72
     1
 10
9758.496307459608
 20
-567.5574195693315
 11
9758.496307459608
 21
-568.4634061937958
 72
     1
 10
9758.496307459608
 20
-568.4634061937958
 11
9758.993446391805
 21
-568.463406193794
 72
     1
 10
9758.993446391805
 20
-568.463406193794
 11
9758.496307459608
 21
-568.9991869560999
 72
     1
 10
9758.496307459608
 20
-568.9991869560999
 11
9758.496307459608
 21
-569.9395013754838
 72
     1
 10
9758.496307459608
 20
-569.9395013754838
 11
9758.993446391805
 21
-569.9395013754838
 72
     1
 10
9758.993446391805
 20
-569.9395013754838
 11
9758.496307459608
 21
-570.4752821377915
 72
     1
 10
9758.496307459608
 20
-570.4752821377915
 11
9758.496307459608
 21
-571.4499243521004
 72
     1
 10
9758.496307459608
 20
-571.4499243521004
 11
9758.993446391805
 21
-571.4499243521022
 72
     1
 10
9758.993446391805
 20
-571.4499243521022
 11
9758.496307459608
 21
-571.9857051144026
 72
     1
 10
9758.496307459608
 20
-571.9857051144026
 11
9758.496307459608
 21
-572.9946751236366
 72
     1
 10
9758.496307459608
 20
-572.9946751236366
 11
9758.993446391805
 21
-572.9946751236384
 72
     1
 10
9758.993446391805
 20
-572.9946751236384
 11
9758.496307459608
 21
-573.5304558859389
 72
     1
 10
9758.496307459608
 20
-573.5304558859389
 11
9758.496307459608
 21
-574.4364425104031
 72
     1
 10
9758.496307459608
 20
-574.4364425104031
 11
9758.993446391805
 21
-574.4364425104031
 72
     1
 10
9758.993446391805
 20
-574.4364425104031
 11
9758.496307459608
 21
-574.9722232727072
 72
     1
 10
9758.496307459608
 20
-574.9722232727072
 11
9758.496307459608
 21
-575.7408987174785
 72
     1
 10
9758.496307459608
 20
-575.7408987174785
 11
9759.062051837808
 21
-575.7408987174785
 72
     1
 10
9759.062051837808
 20
-575.7408987174785
 11
9758.496307459608
 21
-576.3506175195889
 72
     1
 10
9758.496307459608
 20
-576.3506175195889
 11
9758.496307459608
 21
-577.1483383093218
 72
     1
 10
9758.496307459608
 20
-577.1483383093218
 11
9758.993446391805
 21
-577.1483383093218
 72
     1
 10
9758.993446391805
 20
-577.1483383093218
 11
9758.496307459608
 21
-577.6841190716258
 72
     1
 10
9758.496307459608
 20
-577.6841190716258
 11
9758.496307459608
 21
-578.5557821771763
 72
     1
 10
9758.496307459608
 20
-578.5557821771763
 11
9758.993446391805
 21
-578.5557821771726
 72
     1
 10
9758.993446391805
 20
-578.5557821771726
 11
9758.496307459608
 21
-579.0915629394767
 72
     1
 10
9758.496307459608
 20
-579.0915629394767
 11
9758.496307459608
 21
-579.997549563941
 72
     1
 10
9758.496307459608
 20
-579.997549563941
 11
9758.993446391805
 21
-579.997549563941
 72
     1
 10
9758.993446391805
 20
-579.997549563941
 11
9758.496307459608
 21
-580.533330326245
 72
     1
 10
9758.496307459608
 20
-580.533330326245
 11
9758.496307459608
 21
-581.4736447456307
 72
     1
 10
9758.496307459608
 20
-581.4736447456307
 11
9758.993446391805
 21
-581.4736447456307
 72
     1
 10
9758.993446391805
 20
-581.4736447456307
 11
9758.496307459608
 21
-582.0094255079347
 72
     1
 10
9758.496307459608
 20
-582.0094255079347
 11
9758.496307459608
 21
-582.9840677222455
 72
     1
 10
9758.496307459608
 20
-582.9840677222455
 11
9758.993446391805
 21
-582.9840677222455
 72
     1
 10
9758.993446391805
 20
-582.9840677222455
 11
9758.661944586101
 21
-583.3413366437944
 72
     1
 10
9758.661944586101
 20
-583.3413366437944
 11
9906.140651084541
 21
-583.3413366437926
 97
        0
 75
     0
 76
     1
 52
0.0
 41
10.0
 77
     0
 78
     4
 53
37.5
 43
9598.733385368209
 44
-583.3413366437962
 45
-0.6299335810960816
 46
19.26823769013158
 79
     6
 49
0.0
 49
-15.2
 49
0.0
 49
-17.0
 49
0.0
 49
-16.25
 53
7.499999999999999
 43
9598.733385368209
 44
-583.3413366437962
 45
17.69776705267727
 46
28.2214606522974
 79
     6
 49
0.0
 49
-8.199999999999999
 49
0.0
 49
-13.7
 49
0.0
 49
-5.25
 53
327.5
 43
9586.433385368209
 44
-583.3413366437962
 45
31.14141861751495
 46
0.056590535369645
 79
     6
 49
0.0
 49
-5.0
 49
0.0
 49
-18.0
 49
0.0
 49
-23.5
 53
317.5
 43
9586.433385368209
 44
-583.3413366437962
 45
30.06126604572293
 46
8.77675564934249
 79
     6
 49
0.0
 49
-2.5
 49
0.0
 49
-11.8
 49
0.0
 49
-13.5
 47
0.6180339702226095
 98
        2
 10
9893.355090913127
 20
-545.1787260244636
 10
9735.682248143792
 20
-540.2344448855329
1001
ACAD
1010
2914.27266158153
1020
310.6474818643767
1030
0.0
  0
LINE
  5
1A52E
330
1F
100
AcDbEntity
  8
Hebel
100
AcDbLine
 10
9842.640639084541
 20
-513.3413366437943
 30
0.0
 11
9852.64063908454
 21
-513.3413366437943
 31
0.0
  0
LINE
  5
1A52F
330
1F
100
AcDbEntity
  8
Hebel
100
AcDbLine
 10
9852.64063908454
 20
-513.3413366437943
 30
0.0
 11
9852.64063908454
 21
-508.3413366437944
 31
0.0
  0
LINE
  5
1A530
330
1F
100
AcDbEntity
  8
Hebel
100
AcDbLine
 10
9842.640639084541
 20
-513.3413366437943
 30
0.0
 11
9842.640639084541
 21
-508.3413366437944
 31
0.0
  0
LINE
  5
1A531
330
1F
100
AcDbEntity
  8
Adhesive
100
AcDbLine
 10
9598.733385368211
 20
-584.8795845325731
 30
0.0
 11
9906.140651084541
 21
-584.8795845325712
 31
0.0
  0
LINE
  5
1A532
330
1F
100
AcDbEntity
  8
Adhesive
100
AcDbLine
 10
9918.14062708454
 20
-584.8795845325712
 30
0.0
 11
9957.140639084542
 21
-584.8795845325712
 31
0.0
  0
LWPOLYLINE
  5
1A533
330
1F
100
AcDbEntity
  8
Timber
100
AcDbPolyline
 90
        4
 70
     0
 43
0.5
 10
9918.14062708454
 20
-766.3413366437944
 10
9957.140639084542
 20
-766.3413366437944
 10
9957.140639084542
 20
-586.3413366437944
 10
9918.14062708454
 20
-586.3413366437944
  0
LINE
  5
1A534
330
1F
100
AcDbEntity
  8
Hebel
100
AcDbLine
 10
9957.140639084542
 20
-583.3413366437926
 30
0.0
 11
9918.14062708454
 21
-583.3413366437926
 31
0.0
  0
LINE
  5
1A535
330
1F
100
AcDbEntity
  8
Hebel
100
AcDbLine
 10
9906.140651084539
 20
-583.3413366437926
 30
0.0
 11
9598.733385368209
 21
-583.3413366437944
 31
0.0
  0
LINE
  5
1A536
330
1F
100
AcDbEntity
  8
Hebel
100
AcDbLine
 10
9867.14063908454
 20
-508.3413366437944
 30
0.0
 11
9598.733385368209
 21
-508.3413366437962
 31
0.0
  0
LINE
  5
1A537
330
1F
100
AcDbEntity
  8
DEFPOINTS
100
AcDbLine
 10
9598.733385368209
 20
-508.3413366437944
 30
0.0
 11
9598.733385368209
 21
-583.3413366437944
 31
0.0
  0
LWPOLYLINE
  5
1A539
330
1F
100
AcDbEntity
  8
Timber
100
AcDbPolyline
 90
        4
 70
     0
 43
0.5
 10
9906.140651084541
 20
-508.3413366437944
 10
9867.14063908454
 20
-508.3413366437944
 10
9867.14063908454
 20
-463.3413366437943
 10
9895.14067308454
 20
-463.3413366437943
  0
LWPOLYLINE
  5
1A53A
330
1F
100
AcDbEntity
  8
Timber
100
AcDbPolyline
 90
        4
 70
     0
 43
0.5
 10
9929.14060508454
 20
-463.3413366437943
 10
9957.140639084542
 20
-463.3413366437943
 10
9957.140639084542
 20
-508.3413366437944
 10
9918.14062708454
 20
-508.3413366437944
  0
LINE
  5
1A53B
330
1F
100
AcDbEntity
  8
Hatch
100
AcDbLine
 10
9867.14063908454
 20
-508.3413366437944
 30
0.0
 11
9906.140651084541
 21
-488.8413306437942
 31
0.0
  0
LINE
  5
1A53C
330
1F
100
AcDbEntity
  8
Hatch
100
AcDbLine
 10
9918.14062708454
 20
-482.8413426437946
 30
0.0
 11
9957.140639084542
 21
-463.3413366437943
 31
0.0
  0
LINE
  5
1A53D
330
1F
100
AcDbEntity
  8
Hatch
100
AcDbLine
 10
9867.14063908454
 20
-463.3413366437943
 30
0.0
 11
9906.140651084541
 21
-482.8413426437927
 31
0.0
  0
LINE
  5
1A53E
330
1F
100
AcDbEntity
  8
Hatch
100
AcDbLine
 10
9918.14062708454
 20
-488.8413306437923
 30
0.0
 11
9957.140639084542
 21
-508.3413366437944
 31
0.0
  0
LINE
  5
1A53F
330
1F
100
AcDbEntity
  8
Timber
100
AcDbLine
 10
9957.140639084542
 20
-463.3413366437943
 30
0.0
 11
9957.140639084542
 21
-363.1294436174394
 31
0.0
  0
LINE
  5
1A540
330
1F
100
AcDbEntity
  8
Timber
100
AcDbLine
 10
9867.14063908454
 20
-463.3413366437943
 30
0.0
 11
9867.14063908454
 21
-366.8808110735008
 31
0.0
  0
LINE
  5
1A541
330
1F
100
AcDbEntity
  8
Hebel
100
AcDbLine
 10
9957.140639084542
 20
-583.3413366437926
 30
0.0
 11
9957.140639084542
 21
-508.3413366437944
 31
0.0
  0
LINE
  5
1A542
330
1F
100
AcDbEntity
  8
DEFPOINTS
100
AcDbLine
 10
9867.14063908454
 20
-366.8808110735008
 30
0.0
 11
9957.140639084542
 21
-363.1294436174394
 31
0.0
  0
SPLINE
  5
1A543
330
1F
100
AcDbEntity
  8
Timber Hatch
100
AcDbSpline
210
0.0
220
0.0
230
1.0
 70
     8
 71
     3
 72
    11
 73
     7
 74
     0
 42
0.000000001
 43
0.0000000001
 40
3.712450405477365
 40
3.712450405477365
 40
3.712450405477365
 40
3.712450405477365
 40
28.00650816451932
 40
59.00008038932256
 40
84.85880375036257
 40
101.7309563785951
 40
101.7309563785951
 40
101.7309563785951
 40
101.7309563785951
 10
9884.438645440436
 20
-463.3413366437943
 30
0.0
 10
9882.194165553821
 20
-455.4454400027898
 30
0.0
 10
9877.629572425428
 20
-437.4391525335449
 30
0.0
 10
9884.620714248725
 20
-410.0772168392141
 30
0.0
 10
9875.34857945641
 20
-386.0692456172728
 30
0.0
 10
9877.53322472578
 20
-371.9717510370792
 30
0.0
 10
9878.753365706286
 20
-366.3967710210018
 30
0.0
  0
SPLINE
  5
1A544
330
1F
100
AcDbEntity
  8
Timber Hatch
100
AcDbSpline
210
0.0
220
0.0
230
1.0
 70
     8
 71
     3
 72
    12
 73
     8
 74
     0
 42
0.000000001
 43
0.0000000001
 40
9.044689938067058
 40
9.044689938067058
 40
9.044689938067058
 40
9.044689938067058
 40
29.56177034903499
 40
48.09699066811049
 40
72.69042160271488
 40
93.75648364025602
 40
104.0771248460357
 40
104.0771248460357
 40
104.0771248460357
 40
104.0771248460357
 10
9898.674977818648
 20
-459.8413436437949
 30
0.0
 10
9896.619626707568
 20
-453.3115543311559
 30
0.0
 10
9893.055218744393
 20
-440.7908010142437
 30
0.0
 10
9890.771966421246
 20
-419.4530201054185
 30
0.0
 10
9896.395201634428
 20
-398.2448112858619
 30
0.0
 10
9891.859625101687
 20
-379.654435586257
 30
0.0
 10
9892.609506500015
 20
-369.2304923201791
 30
0.0
 10
9893.002627748682
 20
-365.8028352665715
 30
0.0
  0
SPLINE
  5
1A545
330
1F
100
AcDbEntity
  8
Timber Hatch
100
AcDbSpline
210
0.0
220
0.0
230
1.0
 70
     8
 71
     3
 72
    12
 73
     8
 74
     0
 42
0.000000001
 43
0.0000000001
 40
16.14924412182258
 40
16.14924412182258
 40
16.14924412182258
 40
16.14924412182258
 40
26.35058185144674
 40
52.88988348220462
 40
72.36438966697822
 40
90.540252681515
 40
106.3335653053967
 40
106.3335653053967
 40
106.3335653053967
 40
106.3335653053967
 10
9909.000524394683
 20
-452.0813591637979
 30
0.0
 10
9908.492923535721
 20
-448.7292845150514
 30
0.0
 10
9908.132164708838
 20
-436.6265103254609
 30
0.0
 10
9920.774299143927
 20
-417.8379186109522
 30
0.0
 10
9902.036513387624
 20
-398.7068194439198
 30
0.0
 10
9914.564635045406
 20
-381.3756309863565
 30
0.0
 10
9911.460580065318
 20
-370.277592674709
 30
0.0
 10
9909.525735172765
 20
-365.1141214058644
 30
0.0
  0
SPLINE
  5
1A546
330
1F
100
AcDbEntity
  8
Timber Hatch
100
AcDbSpline
210
0.0
220
0.0
230
1.0
 70
     8
 71
     3
 72
    12
 73
     8
 74
     0
 42
0.000000001
 43
0.0000000001
 40
6.107472846306134
 40
6.107472846306134
 40
6.107472846306134
 40
6.107472846306134
 40
27.46667689547404
 40
49.0818741704083
 40
74.12728742035072
 40
91.94960687306739
 40
102.696633693417
 40
102.696633693417
 40
102.696633693417
 40
102.696633693417
 10
9926.245538056857
 20
-459.8413436437986
 30
0.0
 10
9926.054350391652
 20
-452.7082373121393
 30
0.0
 10
9926.06267413949
 20
-438.3743633808698
 30
0.0
 10
9931.704145799784
 20
-415.9420874664938
 30
0.0
 10
9924.295610946415
 20
-394.3919916748964
 30
0.0
 10
9932.699676825963
 20
-376.7875834020597
 30
0.0
 10
9929.79964537238
 20
-367.7236875789822
 30
0.0
 10
9928.354534229786
 20
-364.3293020278725
 30
0.0
  0
SPLINE
  5
1A547
330
1F
100
AcDbEntity
  8
Timber Hatch
100
AcDbSpline
210
0.0
220
0.0
230
1.0
 70
     8
 71
     3
 72
    12
 73
     8
 74
     0
 42
0.000000001
 43
0.0000000001
 40
2.124827550925981
 40
2.124827550925981
 40
2.124827550925981
 40
2.124827550925981
 40
25.01051623960835
 40
46.12983004408158
 40
65.51996401113626
 40
87.13516128607052
 40
102.6456307352269
 40
102.6456307352269
 40
102.6456307352269
 40
102.6456307352269
 10
9942.447259829908
 20
-463.3413366437943
 30
0.0
 10
9942.525720090106
 20
-455.7261949875137
 30
0.0
 10
9942.850140458988
 20
-441.0837984514837
 30
0.0
 10
9948.976379859255
 20
-419.9937253585776
 30
0.0
 10
9939.631741650075
 20
-399.9316781887701
 30
0.0
 10
9946.296999391769
 20
-381.0750038776132
 30
0.0
 10
9944.50308572849
 20
-368.8158757904457
 30
0.0
 10
9943.429892548056
 20
-363.7009330436104
 30
0.0
  0
LINE
  5
1A548
330
1F
100
AcDbEntity
  8
Timber
100
AcDbLine
 10
9598.733385368211
 20
-766.3413366437944
 30
0.0
 11
9906.140651084541
 21
-766.3413366437944
 31
0.0
  0
LINE
  5
1A549
330
1F
100
AcDbEntity
  8
Fixings
100
AcDbLine
 10
9848.49630745961
 20
-515.9856682687241
 30
0.0
 11
9848.49630745961
 21
-562.902299140258
 31
0.0
  0
LINE
  5
1A54A
330
1F
100
AcDbEntity
  8
Fixings
100
AcDbLine
 10
9846.784970709475
 20
-515.9856682687259
 30
0.0
 11
9846.784970709475
 21
-563.3274318358162
 31
0.0
  0
LINE
  5
1A54B
330
1F
100
AcDbEntity
  8
Fixings
100
AcDbLine
 10
9848.49630745961
 20
-515.9856682687259
 30
0.0
 11
9846.784970709475
 21
-515.9856682687259
 31
0.0
  0
LINE
  5
1A54C
330
1F
100
AcDbEntity
  8
Fixings
100
AcDbLine
 10
9844.140639084541
 20
-513.3413366437943
 30
0.0
 11
9851.14063908454
 21
-513.3413366437943
 31
0.0
  0
LINE
  5
1A54D
330
1F
100
AcDbEntity
  8
Fixings
100
AcDbLine
 10
9851.14063908454
 20
-513.3413366437943
 30
0.0
 11
9848.49630745961
 21
-515.9856682687241
 31
0.0
  0
LINE
  5
1A54E
330
1F
100
AcDbEntity
  8
Fixings
100
AcDbLine
 10
9844.140639084541
 20
-513.3413366437943
 30
0.0
 11
9846.784970709475
 21
-515.9856682687259
 31
0.0
  0
LINE
  5
1A54F
330
1F
100
AcDbEntity
  8
Fixings
100
AcDbLine
 10
9848.49630745961
 20
-573.5146291702167
 30
0.0
 11
9848.49630745961
 21
-574.4364425104031
 31
0.0
  0
LINE
  5
1A550
330
1F
100
AcDbEntity
  8
Fixings
100
AcDbLine
 10
9846.784970709475
 20
-573.949853764896
 30
0.0
 11
9846.784970709475
 21
-574.8615752059613
 31
0.0
  0
LINE
  5
1A551
330
1F
100
AcDbEntity
  8
Fixings
100
AcDbLine
 10
9848.515666546575
 20
-586.3481873486944
 30
0.0
 11
9848.993446391807
 21
-585.8332704248478
 31
0.0
  0
LINE
  5
1A552
330
1F
100
AcDbEntity
  8
Fixings
100
AcDbLine
 10
9848.993446391807
 20
-585.8332704248478
 30
0.0
 11
9848.49630745961
 21
-585.8332704248478
 31
0.0
  0
LINE
  5
1A553
330
1F
100
AcDbEntity
  8
Fixings
100
AcDbLine
 10
9848.515666546575
 20
-587.7556312165451
 30
0.0
 11
9848.993446391807
 21
-587.2407142927004
 31
0.0
  0
LINE
  5
1A554
330
1F
100
AcDbEntity
  8
Fixings
100
AcDbLine
 10
9848.993446391807
 20
-587.2407142927004
 30
0.0
 11
9848.49630745961
 21
-587.2407142927004
 31
0.0
  0
LINE
  5
1A555
330
1F
100
AcDbEntity
  8
Fixings
100
AcDbLine
 10
9846.800558055896
 20
-586.2452039639247
 30
0.0
 11
9846.354630200346
 21
-586.6228097080766
 31
0.0
  0
LINE
  5
1A556
330
1F
100
AcDbEntity
  8
Fixings
100
AcDbLine
 10
9846.354630200346
 20
-586.6228097080766
 30
0.0
 11
9846.800558055896
 21
-586.7944486826927
 31
0.0
  0
LINE
  5
1A557
330
1F
100
AcDbEntity
  8
Fixings
100
AcDbLine
 10
9846.800558055896
 20
-587.6526478317773
 30
0.0
 11
9846.354630200346
 21
-588.0302535759311
 31
0.0
  0
LINE
  5
1A558
330
1F
100
AcDbEntity
  8
Fixings
100
AcDbLine
 10
9846.354630200346
 20
-588.0302535759311
 30
0.0
 11
9846.800558055896
 21
-588.2018925505454
 31
0.0
  0
LINE
  5
1A559
330
1F
100
AcDbEntity
  8
Fixings
100
AcDbLine
 10
9848.49630745961
 20
-587.2407142927004
 30
0.0
 11
9846.800558055896
 21
-587.6526478317773
 31
0.0
  0
LINE
  5
1A55A
330
1F
100
AcDbEntity
  8
Fixings
100
AcDbLine
 10
9846.800558055896
 20
-586.7944486826927
 30
0.0
 11
9848.515666546575
 21
-586.3481873486944
 31
0.0
  0
LINE
  5
1A55B
330
1F
100
AcDbEntity
  8
Fixings
100
AcDbLine
 10
9846.800558055896
 20
-588.2018925505454
 30
0.0
 11
9848.515666546575
 21
-587.7556312165451
 31
0.0
  0
LINE
  5
1A55C
330
1F
100
AcDbEntity
  8
Fixings
100
AcDbLine
 10
9848.49630745961
 20
-585.8332704248478
 30
0.0
 11
9846.800558055896
 21
-586.2452039639247
 31
0.0
  0
LINE
  5
1A55D
330
1F
100
AcDbEntity
  8
Fixings
100
AcDbLine
 10
9848.564912905613
 20
-564.2067553473334
 30
0.0
 11
9846.869163501899
 21
-564.6186888864104
 31
0.0
  0
LINE
  5
1A55E
330
1F
100
AcDbEntity
  8
Fixings
100
AcDbLine
 10
9848.49630745961
 20
-562.902299140258
 30
0.0
 11
9846.800558055896
 21
-563.314232679335
 31
0.0
  0
LINE
  5
1A55F
330
1F
100
AcDbEntity
  8
Fixings
100
AcDbLine
 10
9846.800558055896
 20
-563.863477398103
 30
0.0
 11
9848.515666546575
 21
-563.4172160641046
 31
0.0
  0
LINE
  5
1A560
330
1F
100
AcDbEntity
  8
Fixings
100
AcDbLine
 10
9848.49630745961
 20
-568.4634061937958
 30
0.0
 11
9846.800558055896
 21
-568.8753397328746
 31
0.0
  0
LINE
  5
1A561
330
1F
100
AcDbEntity
  8
Fixings
100
AcDbLine
 10
9848.49630745961
 20
-565.6141949391767
 30
0.0
 11
9846.800558055896
 21
-566.0261284782536
 31
0.0
  0
LINE
  5
1A562
330
1F
100
AcDbEntity
  8
Fixings
100
AcDbLine
 10
9846.800558055896
 20
-567.9828170648743
 30
0.0
 11
9848.515666546575
 21
-567.5365557308741
 31
0.0
  0
LINE
  5
1A563
330
1F
100
AcDbEntity
  8
Fixings
100
AcDbLine
 10
9846.800558055896
 20
-566.5753731970217
 30
0.0
 11
9848.515666546575
 21
-566.1291118630233
 31
0.0
  0
LINE
  5
1A564
330
1F
100
AcDbEntity
  8
Fixings
100
AcDbLine
 10
9848.49630745961
 20
-567.0216388070294
 30
0.0
 11
9846.800558055896
 21
-567.4335723461062
 31
0.0
  0
LINE
  5
1A565
330
1F
100
AcDbEntity
  8
Fixings
100
AcDbLine
 10
9846.869163501899
 20
-565.1679336051784
 30
0.0
 11
9848.584271992578
 21
-564.72167227118
 31
0.0
  0
LINE
  5
1A566
330
1F
100
AcDbEntity
  8
Fixings
100
AcDbLine
 10
9848.49630745961
 20
-569.9395013754856
 30
0.0
 11
9846.800558055896
 21
-570.3514349145644
 31
0.0
  0
LINE
  5
1A567
330
1F
100
AcDbEntity
  8
Fixings
100
AcDbLine
 10
9846.800558055896
 20
-570.9006796333324
 30
0.0
 11
9848.515666546575
 21
-570.4544182993322
 31
0.0
  0
LINE
  5
1A568
330
1F
100
AcDbEntity
  8
Fixings
100
AcDbLine
 10
9848.49630745961
 20
-571.4499243521004
 30
0.0
 11
9846.800558055896
 21
-571.8618578911755
 31
0.0
  0
LINE
  5
1A569
330
1F
100
AcDbEntity
  8
Fixings
100
AcDbLine
 10
9846.800558055896
 20
-569.4245844516427
 30
0.0
 11
9848.515666546575
 21
-568.9783231176424
 31
0.0
  0
LINE
  5
1A56A
330
1F
100
AcDbEntity
  8
Fixings
100
AcDbLine
 10
9848.584271992578
 20
-564.72167227118
 30
0.0
 11
9849.06205183781
 21
-564.2067553473334
 31
0.0
  0
LINE
  5
1A56B
330
1F
100
AcDbEntity
  8
Fixings
100
AcDbLine
 10
9846.784970709475
 20
-563.857477781521
 30
0.0
 11
9846.784970709475
 21
-564.6899822170253
 31
0.0
  0
LINE
  5
1A56C
330
1F
100
AcDbEntity
  8
Fixings
100
AcDbLine
 10
9846.869163501899
 20
-564.6186888864104
 30
0.0
 11
9846.423235646351
 21
-564.9962946305622
 31
0.0
  0
LINE
  5
1A56D
330
1F
100
AcDbEntity
  8
Fixings
100
AcDbLine
 10
9849.06205183781
 20
-564.2067553473334
 30
0.0
 11
9848.564912905613
 21
-564.2067553473334
 31
0.0
  0
LINE
  5
1A56E
330
1F
100
AcDbEntity
  8
Fixings
100
AcDbLine
 10
9848.515666546575
 20
-563.4172160641046
 30
0.0
 11
9848.993446391807
 21
-562.902299140258
 31
0.0
  0
LINE
  5
1A56F
330
1F
100
AcDbEntity
  8
Fixings
100
AcDbLine
 10
9848.993446391807
 20
-562.902299140258
 30
0.0
 11
9848.49630745961
 21
-562.902299140258
 31
0.0
  0
LINE
  5
1A570
330
1F
100
AcDbEntity
  8
Fixings
100
AcDbLine
 10
9848.49630745961
 20
-563.4222531868399
 30
0.0
 11
9848.49630745961
 21
-564.2234210669921
 31
0.0
  0
LINE
  5
1A571
330
1F
100
AcDbEntity
  8
Fixings
100
AcDbLine
 10
9846.354630200346
 20
-563.6918384234868
 30
0.0
 11
9846.800558055896
 21
-563.863477398103
 31
0.0
  0
LINE
  5
1A572
330
1F
100
AcDbEntity
  8
Fixings
100
AcDbLine
 10
9846.800558055896
 20
-563.314232679335
 30
0.0
 11
9846.354630200346
 21
-563.6918384234868
 31
0.0
  0
LINE
  5
1A573
330
1F
100
AcDbEntity
  8
Fixings
100
AcDbLine
 10
9848.515666546575
 20
-568.9783231176424
 30
0.0
 11
9848.993446391807
 21
-568.4634061937958
 31
0.0
  0
LINE
  5
1A574
330
1F
100
AcDbEntity
  8
Fixings
100
AcDbLine
 10
9846.784970709475
 20
-567.9768174482924
 30
0.0
 11
9846.784970709475
 21
-568.8885388893559
 31
0.0
  0
LINE
  5
1A575
330
1F
100
AcDbEntity
  8
Fixings
100
AcDbLine
 10
9848.993446391807
 20
-568.4634061937958
 30
0.0
 11
9848.49630745961
 21
-568.4634061937958
 31
0.0
  0
LINE
  5
1A576
330
1F
100
AcDbEntity
  8
Fixings
100
AcDbLine
 10
9848.993446391807
 20
-567.0216388070294
 30
0.0
 11
9848.49630745961
 21
-567.0216388070294
 31
0.0
  0
LINE
  5
1A577
330
1F
100
AcDbEntity
  8
Fixings
100
AcDbLine
 10
9848.515666546575
 20
-567.5365557308741
 30
0.0
 11
9848.993446391807
 21
-567.0216388070294
 31
0.0
  0
LINE
  5
1A578
330
1F
100
AcDbEntity
  8
Fixings
100
AcDbLine
 10
9848.993446391807
 20
-565.6141949391767
 30
0.0
 11
9848.49630745961
 21
-565.6141949391767
 31
0.0
  0
LINE
  5
1A579
330
1F
100
AcDbEntity
  8
Fixings
100
AcDbLine
 10
9848.515666546575
 20
-566.1291118630233
 30
0.0
 11
9848.993446391807
 21
-565.6141949391767
 31
0.0
  0
LINE
  5
1A57A
330
1F
100
AcDbEntity
  8
Fixings
100
AcDbLine
 10
9848.49630745961
 20
-566.1341489857586
 30
0.0
 11
9848.49630745961
 21
-567.0216388070294
 31
0.0
  0
LINE
  5
1A57B
330
1F
100
AcDbEntity
  8
Fixings
100
AcDbLine
 10
9846.354630200346
 20
-567.8111780902599
 30
0.0
 11
9846.800558055896
 21
-567.9828170648743
 31
0.0
  0
LINE
  5
1A57C
330
1F
100
AcDbEntity
  8
Fixings
100
AcDbLine
 10
9846.800558055896
 20
-567.4335723461062
 30
0.0
 11
9846.354630200346
 21
-567.8111780902599
 31
0.0
  0
LINE
  5
1A57D
330
1F
100
AcDbEntity
  8
Fixings
100
AcDbLine
 10
9846.354630200346
 20
-566.4037342224055
 30
0.0
 11
9846.800558055896
 21
-566.5753731970217
 31
0.0
  0
LINE
  5
1A57E
330
1F
100
AcDbEntity
  8
Fixings
100
AcDbLine
 10
9846.800558055896
 20
-566.0261284782536
 30
0.0
 11
9846.354630200346
 21
-566.4037342224055
 31
0.0
  0
LINE
  5
1A57F
330
1F
100
AcDbEntity
  8
Fixings
100
AcDbLine
 10
9846.784970709475
 20
-566.5693735804397
 30
0.0
 11
9846.784970709475
 21
-567.4467715025875
 31
0.0
  0
LINE
  5
1A580
330
1F
100
AcDbEntity
  8
Fixings
100
AcDbLine
 10
9846.784970709475
 20
-565.1355275458081
 30
0.0
 11
9846.784970709475
 21
-566.0393276347349
 31
0.0
  0
LINE
  5
1A581
330
1F
100
AcDbEntity
  8
Fixings
100
AcDbLine
 10
9848.49630745961
 20
-567.5415928536112
 30
0.0
 11
9848.49630745961
 21
-568.4634061937958
 31
0.0
  0
LINE
  5
1A582
330
1F
100
AcDbEntity
  8
Fixings
100
AcDbLine
 10
9846.423235646351
 20
-564.9962946305622
 30
0.0
 11
9846.869163501899
 21
-565.1679336051784
 31
0.0
  0
LINE
  5
1A583
330
1F
100
AcDbEntity
  8
Fixings
100
AcDbLine
 10
9848.49630745961
 20
-564.7445601351482
 30
0.0
 11
9848.49630745961
 21
-565.6141949391767
 31
0.0
  0
LINE
  5
1A584
330
1F
100
AcDbEntity
  8
Fixings
100
AcDbLine
 10
9848.49630745961
 20
-571.9698783986823
 30
0.0
 11
9848.49630745961
 21
-572.9946751236347
 31
0.0
  0
LINE
  5
1A585
330
1F
100
AcDbEntity
  8
Fixings
100
AcDbLine
 10
9848.993446391807
 20
-572.9946751236366
 30
0.0
 11
9848.49630745961
 21
-572.9946751236366
 31
0.0
  0
LINE
  5
1A586
330
1F
100
AcDbEntity
  8
Fixings
100
AcDbLine
 10
9846.354630200346
 20
-570.7290406587162
 30
0.0
 11
9846.800558055896
 21
-570.9006796333324
 31
0.0
  0
LINE
  5
1A587
330
1F
100
AcDbEntity
  8
Fixings
100
AcDbLine
 10
9848.993446391807
 20
-569.9395013754856
 30
0.0
 11
9848.49630745961
 21
-569.9395013754856
 31
0.0
  0
LINE
  5
1A588
330
1F
100
AcDbEntity
  8
Fixings
100
AcDbLine
 10
9848.515666546575
 20
-570.4544182993322
 30
0.0
 11
9848.993446391807
 21
-569.9395013754856
 31
0.0
  0
LINE
  5
1A589
330
1F
100
AcDbEntity
  8
Fixings
100
AcDbLine
 10
9846.784970709475
 20
-569.4185848350589
 30
0.0
 11
9846.784970709475
 21
-570.3646340710456
 31
0.0
  0
LINE
  5
1A58A
330
1F
100
AcDbEntity
  8
Fixings
100
AcDbLine
 10
9846.354630200346
 20
-569.2529454770265
 30
0.0
 11
9846.800558055896
 21
-569.4245844516427
 31
0.0
  0
LINE
  5
1A58B
330
1F
100
AcDbEntity
  8
Fixings
100
AcDbLine
 10
9846.800558055896
 20
-570.3514349145644
 30
0.0
 11
9846.354630200346
 21
-570.7290406587162
 31
0.0
  0
LINE
  5
1A58C
330
1F
100
AcDbEntity
  8
Fixings
100
AcDbLine
 10
9848.993446391807
 20
-571.4499243521004
 30
0.0
 11
9848.49630745961
 21
-571.4499243521004
 31
0.0
  0
LINE
  5
1A58D
330
1F
100
AcDbEntity
  8
Fixings
100
AcDbLine
 10
9848.515666546575
 20
-571.9648412759452
 30
0.0
 11
9848.993446391807
 21
-571.4499243521004
 31
0.0
  0
LINE
  5
1A58E
330
1F
100
AcDbEntity
  8
Fixings
100
AcDbLine
 10
9846.354630200346
 20
-572.2394636353292
 30
0.0
 11
9846.800558055896
 21
-572.4111026099435
 31
0.0
  0
LINE
  5
1A58F
330
1F
100
AcDbEntity
  8
Fixings
100
AcDbLine
 10
9846.800558055896
 20
-571.8618578911755
 30
0.0
 11
9846.354630200346
 21
-572.2394636353292
 31
0.0
  0
LINE
  5
1A590
330
1F
100
AcDbEntity
  8
Fixings
100
AcDbLine
 10
9846.800558055896
 20
-572.4111026099435
 30
0.0
 11
9848.515666546575
 21
-571.9648412759452
 31
0.0
  0
LINE
  5
1A591
330
1F
100
AcDbEntity
  8
Fixings
100
AcDbLine
 10
9846.784970709475
 20
-570.8946800167487
 30
0.0
 11
9846.784970709475
 21
-571.8750570476568
 31
0.0
  0
LINE
  5
1A592
330
1F
100
AcDbEntity
  8
Fixings
100
AcDbLine
 10
9848.49630745961
 20
-570.4594554220693
 30
0.0
 11
9848.49630745961
 21
-571.4499243520986
 31
0.0
  0
LINE
  5
1A593
330
1F
100
AcDbEntity
  8
Fixings
100
AcDbLine
 10
9846.354630200346
 20
-573.7842144068654
 30
0.0
 11
9846.800558055896
 21
-573.9558533814797
 31
0.0
  0
LINE
  5
1A594
330
1F
100
AcDbEntity
  8
Fixings
100
AcDbLine
 10
9846.800558055896
 20
-573.4066086627117
 30
0.0
 11
9846.354630200346
 21
-573.7842144068654
 31
0.0
  0
LINE
  5
1A595
330
1F
100
AcDbEntity
  8
Fixings
100
AcDbLine
 10
9846.800558055896
 20
-573.9558533814797
 30
0.0
 11
9848.515666546575
 21
-573.5095920474813
 31
0.0
  0
LINE
  5
1A596
330
1F
100
AcDbEntity
  8
Fixings
100
AcDbLine
 10
9846.784970709475
 20
-572.4051029933616
 30
0.0
 11
9846.784970709475
 21
-573.4198078191948
 31
0.0
  0
LINE
  5
1A597
330
1F
100
AcDbEntity
  8
Fixings
100
AcDbLine
 10
9848.49630745961
 20
-572.9946751236366
 30
0.0
 11
9846.800558055896
 21
-573.4066086627117
 31
0.0
  0
LINE
  5
1A598
330
1F
100
AcDbEntity
  8
Fixings
100
AcDbLine
 10
9848.515666546575
 20
-573.5095920474813
 30
0.0
 11
9848.993446391807
 21
-572.9946751236366
 31
0.0
  0
LINE
  5
1A599
330
1F
100
AcDbEntity
  8
Fixings
100
AcDbLine
 10
9848.49630745961
 20
-568.9833602403796
 30
0.0
 11
9848.49630745961
 21
-569.9395013754856
 31
0.0
  0
LINE
  5
1A59A
330
1F
100
AcDbEntity
  8
Fixings
100
AcDbLine
 10
9846.800558055896
 20
-568.8753397328746
 30
0.0
 11
9846.354630200346
 21
-569.2529454770265
 31
0.0
  0
LINE
  5
1A59B
330
1F
100
AcDbEntity
  8
Fixings
100
AcDbLine
 10
9846.800558055896
 20
-580.4094831030197
 30
0.0
 11
9846.354630200346
 21
-580.7870888471716
 31
0.0
  0
LINE
  5
1A59C
330
1F
100
AcDbEntity
  8
Fixings
100
AcDbLine
 10
9848.49630745961
 20
-580.5175036105246
 30
0.0
 11
9848.49630745961
 21
-581.4736447456307
 31
0.0
  0
LINE
  5
1A59D
330
1F
100
AcDbEntity
  8
Fixings
100
AcDbLine
 10
9848.515666546575
 20
-585.0437354176265
 30
0.0
 11
9848.993446391807
 21
-584.5288184937817
 31
0.0
  0
LINE
  5
1A59E
330
1F
100
AcDbEntity
  8
Fixings
100
AcDbLine
 10
9848.49630745961
 20
-584.5288184937817
 30
0.0
 11
9846.800558055896
 21
-584.9407520328568
 31
0.0
  0
LINE
  5
1A59F
330
1F
100
AcDbEntity
  8
Fixings
100
AcDbLine
 10
9846.784970709475
 20
-583.9392463635067
 30
0.0
 11
9846.784970709475
 21
-584.9539511893399
 31
0.0
  0
LINE
  5
1A5A0
330
1F
100
AcDbEntity
  8
Fixings
100
AcDbLine
 10
9846.800558055896
 20
-585.4899967516248
 30
0.0
 11
9848.515666546575
 21
-585.0437354176265
 31
0.0
  0
LINE
  5
1A5A1
330
1F
100
AcDbEntity
  8
Fixings
100
AcDbLine
 10
9846.800558055896
 20
-584.9407520328568
 30
0.0
 11
9846.354630200346
 21
-585.3183577770105
 31
0.0
  0
LINE
  5
1A5A2
330
1F
100
AcDbEntity
  8
Fixings
100
AcDbLine
 10
9846.354630200346
 20
-585.3183577770105
 30
0.0
 11
9846.800558055896
 21
-585.4899967516248
 31
0.0
  0
LINE
  5
1A5A3
330
1F
100
AcDbEntity
  8
Fixings
100
AcDbLine
 10
9848.49630745961
 20
-581.9935987922145
 30
0.0
 11
9848.49630745961
 21
-582.9840677222437
 31
0.0
  0
LINE
  5
1A5A4
330
1F
100
AcDbEntity
  8
Fixings
100
AcDbLine
 10
9846.784970709475
 20
-582.4288233868937
 30
0.0
 11
9846.784970709475
 21
-583.4092004178018
 31
0.0
  0
LINE
  5
1A5A5
330
1F
100
AcDbEntity
  8
Fixings
100
AcDbLine
 10
9846.800558055896
 20
-583.9452459800886
 30
0.0
 11
9848.515666546575
 21
-583.4989846460903
 31
0.0
  0
LINE
  5
1A5A6
330
1F
100
AcDbEntity
  8
Fixings
100
AcDbLine
 10
9846.800558055896
 20
-583.3960012613206
 30
0.0
 11
9846.354630200346
 21
-583.7736070054743
 31
0.0
  0
LINE
  5
1A5A7
330
1F
100
AcDbEntity
  8
Fixings
100
AcDbLine
 10
9846.354630200346
 20
-583.7736070054743
 30
0.0
 11
9846.800558055896
 21
-583.9452459800886
 31
0.0
  0
LINE
  5
1A5A8
330
1F
100
AcDbEntity
  8
Fixings
100
AcDbLine
 10
9848.515666546575
 20
-583.4989846460903
 30
0.0
 11
9848.993446391807
 21
-582.9840677222455
 31
0.0
  0
LINE
  5
1A5A9
330
1F
100
AcDbEntity
  8
Fixings
100
AcDbLine
 10
9848.993446391807
 20
-582.9840677222455
 30
0.0
 11
9848.49630745961
 21
-582.9840677222455
 31
0.0
  0
LINE
  5
1A5AA
330
1F
100
AcDbEntity
  8
Fixings
100
AcDbLine
 10
9846.800558055896
 20
-581.8855782847094
 30
0.0
 11
9846.354630200346
 21
-582.2631840288614
 31
0.0
  0
LINE
  5
1A5AB
330
1F
100
AcDbEntity
  8
Fixings
100
AcDbLine
 10
9846.354630200346
 20
-580.7870888471716
 30
0.0
 11
9846.800558055896
 21
-580.9587278217877
 31
0.0
  0
LINE
  5
1A5AC
330
1F
100
AcDbEntity
  8
Fixings
100
AcDbLine
 10
9846.784970709475
 20
-580.952728205204
 30
0.0
 11
9846.784970709475
 21
-581.8987774411907
 31
0.0
  0
LINE
  5
1A5AD
330
1F
100
AcDbEntity
  8
Fixings
100
AcDbLine
 10
9848.515666546575
 20
-581.9885616694773
 30
0.0
 11
9848.993446391807
 21
-581.4736447456307
 31
0.0
  0
LINE
  5
1A5AE
330
1F
100
AcDbEntity
  8
Fixings
100
AcDbLine
 10
9848.993446391807
 20
-581.4736447456307
 30
0.0
 11
9848.49630745961
 21
-581.4736447456307
 31
0.0
  0
LINE
  5
1A5AF
330
1F
100
AcDbEntity
  8
Fixings
100
AcDbLine
 10
9846.354630200346
 20
-582.2631840288614
 30
0.0
 11
9846.800558055896
 21
-582.4348230034774
 31
0.0
  0
LINE
  5
1A5B0
330
1F
100
AcDbEntity
  8
Fixings
100
AcDbLine
 10
9848.993446391807
 20
-584.5288184937817
 30
0.0
 11
9848.49630745961
 21
-584.5288184937817
 31
0.0
  0
LINE
  5
1A5B1
330
1F
100
AcDbEntity
  8
Fixings
100
AcDbLine
 10
9848.49630745961
 20
-583.5040217688274
 30
0.0
 11
9848.49630745961
 21
-584.5288184937799
 31
0.0
  0
LINE
  5
1A5B2
330
1F
100
AcDbEntity
  8
Fixings
100
AcDbLine
 10
9848.49630745961
 20
-576.2787035052934
 30
0.0
 11
9848.49630745961
 21
-577.1483383093218
 31
0.0
  0
LINE
  5
1A5B3
330
1F
100
AcDbEntity
  8
Fixings
100
AcDbLine
 10
9846.423235646351
 20
-576.5304380007073
 30
0.0
 11
9846.869163501899
 21
-576.7020769753234
 31
0.0
  0
LINE
  5
1A5B4
330
1F
100
AcDbEntity
  8
Fixings
100
AcDbLine
 10
9848.49630745961
 20
-579.0757362237563
 30
0.0
 11
9848.49630745961
 21
-579.997549563941
 31
0.0
  0
LINE
  5
1A5B5
330
1F
100
AcDbEntity
  8
Fixings
100
AcDbLine
 10
9846.784970709475
 20
-576.6696709159532
 30
0.0
 11
9846.784970709475
 21
-577.5734710048801
 31
0.0
  0
LINE
  5
1A5B6
330
1F
100
AcDbEntity
  8
Fixings
100
AcDbLine
 10
9846.784970709475
 20
-578.1035169505848
 30
0.0
 11
9846.784970709475
 21
-578.9809148727327
 31
0.0
  0
LINE
  5
1A5B7
330
1F
100
AcDbEntity
  8
Fixings
100
AcDbLine
 10
9846.800558055896
 20
-577.5602718483987
 30
0.0
 11
9846.354630200346
 21
-577.9378775925506
 31
0.0
  0
LINE
  5
1A5B8
330
1F
100
AcDbEntity
  8
Fixings
100
AcDbLine
 10
9846.354630200346
 20
-577.9378775925506
 30
0.0
 11
9846.800558055896
 21
-578.1095165671668
 31
0.0
  0
LINE
  5
1A5B9
330
1F
100
AcDbEntity
  8
Fixings
100
AcDbLine
 10
9846.800558055896
 20
-578.9677157162514
 30
0.0
 11
9846.354630200346
 21
-579.3453214604051
 31
0.0
  0
LINE
  5
1A5BA
330
1F
100
AcDbEntity
  8
Fixings
100
AcDbLine
 10
9846.354630200346
 20
-579.3453214604051
 30
0.0
 11
9846.800558055896
 21
-579.5169604350194
 31
0.0
  0
LINE
  5
1A5BB
330
1F
100
AcDbEntity
  8
Fixings
100
AcDbLine
 10
9848.49630745961
 20
-577.6682923559037
 30
0.0
 11
9848.49630745961
 21
-578.5557821771744
 31
0.0
  0
LINE
  5
1A5BC
330
1F
100
AcDbEntity
  8
Fixings
100
AcDbLine
 10
9848.515666546575
 20
-577.6632552331684
 30
0.0
 11
9848.993446391807
 21
-577.1483383093218
 31
0.0
  0
LINE
  5
1A5BD
330
1F
100
AcDbEntity
  8
Fixings
100
AcDbLine
 10
9848.993446391807
 20
-577.1483383093218
 30
0.0
 11
9848.49630745961
 21
-577.1483383093218
 31
0.0
  0
LINE
  5
1A5BE
330
1F
100
AcDbEntity
  8
Fixings
100
AcDbLine
 10
9848.515666546575
 20
-579.0706991010193
 30
0.0
 11
9848.993446391807
 21
-578.5557821771744
 31
0.0
  0
LINE
  5
1A5BF
330
1F
100
AcDbEntity
  8
Fixings
100
AcDbLine
 10
9848.993446391807
 20
-578.5557821771744
 30
0.0
 11
9848.49630745961
 21
-578.5557821771744
 31
0.0
  0
LINE
  5
1A5C0
330
1F
100
AcDbEntity
  8
Fixings
100
AcDbLine
 10
9848.993446391807
 20
-579.997549563941
 30
0.0
 11
9848.49630745961
 21
-579.997549563941
 31
0.0
  0
LINE
  5
1A5C1
330
1F
100
AcDbEntity
  8
Fixings
100
AcDbLine
 10
9846.784970709475
 20
-579.5109608184374
 30
0.0
 11
9846.784970709475
 21
-580.422682259501
 31
0.0
  0
LINE
  5
1A5C2
330
1F
100
AcDbEntity
  8
Fixings
100
AcDbLine
 10
9848.515666546575
 20
-580.5124664877876
 30
0.0
 11
9848.993446391807
 21
-579.997549563941
 31
0.0
  0
LINE
  5
1A5C3
330
1F
100
AcDbEntity
  8
Fixings
100
AcDbLine
 10
9846.800558055896
 20
-574.84837604948
 30
0.0
 11
9846.354630200346
 21
-575.2259817936319
 31
0.0
  0
LINE
  5
1A5C4
330
1F
100
AcDbEntity
  8
Fixings
100
AcDbLine
 10
9846.354630200346
 20
-575.2259817936319
 30
0.0
 11
9846.800558055896
 21
-575.397620768248
 31
0.0
  0
LINE
  5
1A5C5
330
1F
100
AcDbEntity
  8
Fixings
100
AcDbLine
 10
9848.49630745961
 20
-574.956396556985
 30
0.0
 11
9848.49630745961
 21
-575.7575644371372
 31
0.0
  0
LINE
  5
1A5C6
330
1F
100
AcDbEntity
  8
Fixings
100
AcDbLine
 10
9848.993446391807
 20
-574.4364425104031
 30
0.0
 11
9848.49630745961
 21
-574.4364425104031
 31
0.0
  0
LINE
  5
1A5C7
330
1F
100
AcDbEntity
  8
Fixings
100
AcDbLine
 10
9848.515666546575
 20
-574.9513594342497
 30
0.0
 11
9848.993446391807
 21
-574.4364425104031
 31
0.0
  0
LINE
  5
1A5C8
330
1F
100
AcDbEntity
  8
Fixings
100
AcDbLine
 10
9849.06205183781
 20
-575.7408987174785
 30
0.0
 11
9848.564912905613
 21
-575.7408987174785
 31
0.0
  0
LINE
  5
1A5C9
330
1F
100
AcDbEntity
  8
Fixings
100
AcDbLine
 10
9846.869163501899
 20
-576.1528322565554
 30
0.0
 11
9846.423235646351
 21
-576.5304380007073
 31
0.0
  0
LINE
  5
1A5CA
330
1F
100
AcDbEntity
  8
Fixings
100
AcDbLine
 10
9846.784970709475
 20
-575.3916211516662
 30
0.0
 11
9846.784970709475
 21
-576.2241255871704
 31
0.0
  0
LINE
  5
1A5CB
330
1F
100
AcDbEntity
  8
Fixings
100
AcDbLine
 10
9848.584271992578
 20
-576.2558156413251
 30
0.0
 11
9849.06205183781
 21
-575.7408987174785
 31
0.0
  0
LINE
  5
1A5CC
330
1F
100
AcDbEntity
  8
Fixings
100
AcDbLine
 10
9846.800558055896
 20
-580.9587278217877
 30
0.0
 11
9848.515666546575
 21
-580.5124664877876
 31
0.0
  0
LINE
  5
1A5CD
330
1F
100
AcDbEntity
  8
Fixings
100
AcDbLine
 10
9848.49630745961
 20
-582.9840677222455
 30
0.0
 11
9846.800558055896
 21
-583.3960012613206
 31
0.0
  0
LINE
  5
1A5CE
330
1F
100
AcDbEntity
  8
Fixings
100
AcDbLine
 10
9846.800558055896
 20
-582.4348230034774
 30
0.0
 11
9848.515666546575
 21
-581.9885616694773
 31
0.0
  0
LINE
  5
1A5CF
330
1F
100
AcDbEntity
  8
Fixings
100
AcDbLine
 10
9848.49630745961
 20
-581.4736447456307
 30
0.0
 11
9846.800558055896
 21
-581.8855782847094
 31
0.0
  0
LINE
  5
1A5D0
330
1F
100
AcDbEntity
  8
Fixings
100
AcDbLine
 10
9846.869163501899
 20
-576.7020769753234
 30
0.0
 11
9848.584271992578
 21
-576.2558156413251
 31
0.0
  0
LINE
  5
1A5D1
330
1F
100
AcDbEntity
  8
Fixings
100
AcDbLine
 10
9848.49630745961
 20
-578.5557821771744
 30
0.0
 11
9846.800558055896
 21
-578.9677157162514
 31
0.0
  0
LINE
  5
1A5D2
330
1F
100
AcDbEntity
  8
Fixings
100
AcDbLine
 10
9846.800558055896
 20
-578.1095165671668
 30
0.0
 11
9848.515666546575
 21
-577.6632552331684
 31
0.0
  0
LINE
  5
1A5D3
330
1F
100
AcDbEntity
  8
Fixings
100
AcDbLine
 10
9846.800558055896
 20
-579.5169604350194
 30
0.0
 11
9848.515666546575
 21
-579.0706991010193
 31
0.0
  0
LINE
  5
1A5D4
330
1F
100
AcDbEntity
  8
Fixings
100
AcDbLine
 10
9848.49630745961
 20
-577.1483383093218
 30
0.0
 11
9846.800558055896
 21
-577.5602718483987
 31
0.0
  0
LINE
  5
1A5D5
330
1F
100
AcDbEntity
  8
Fixings
100
AcDbLine
 10
9848.49630745961
 20
-579.997549563941
 30
0.0
 11
9846.800558055896
 21
-580.4094831030197
 31
0.0
  0
LINE
  5
1A5D6
330
1F
100
AcDbEntity
  8
Fixings
100
AcDbLine
 10
9846.800558055896
 20
-575.397620768248
 30
0.0
 11
9848.515666546575
 21
-574.9513594342497
 31
0.0
  0
LINE
  5
1A5D7
330
1F
100
AcDbEntity
  8
Fixings
100
AcDbLine
 10
9848.49630745961
 20
-574.4364425104031
 30
0.0
 11
9846.800558055896
 21
-574.84837604948
 31
0.0
  0
LINE
  5
1A5D8
330
1F
100
AcDbEntity
  8
Fixings
100
AcDbLine
 10
9848.564912905613
 20
-575.7408987174785
 30
0.0
 11
9846.869163501899
 21
-576.1528322565554
 31
0.0
  0
LINE
  5
1A5D9
330
1F
100
AcDbEntity
  8
Fixings
100
AcDbLine
 10
9846.784970709475
 20
-586.788449066109
 30
0.0
 11
9846.784970709475
 21
-587.6658469882586
 31
0.0
  0
LINE
  5
1A5DA
330
1F
100
AcDbEntity
  8
Fixings
100
AcDbLine
 10
9848.49630745961
 20
-586.3532244714297
 30
0.0
 11
9848.49630745961
 21
-587.2407142927004
 31
0.0
  0
LINE
  5
1A5DB
330
1F
100
AcDbEntity
  8
Fixings
100
AcDbLine
 10
9848.515666546575
 20
-592.0466098579327
 30
0.0
 11
9848.993446391807
 21
-591.531692934086
 31
0.0
  0
LINE
  5
1A5DC
330
1F
100
AcDbEntity
  8
Fixings
100
AcDbLine
 10
9848.49630745961
 20
-591.531692934086
 30
0.0
 11
9846.800558055896
 21
-591.9436264731648
 31
0.0
  0
LINE
  5
1A5DD
330
1F
100
AcDbEntity
  8
Fixings
100
AcDbLine
 10
9846.784970709475
 20
-591.0451041885826
 30
0.0
 11
9846.784970709475
 21
-591.9568256296461
 31
0.0
  0
LINE
  5
1A5DE
330
1F
100
AcDbEntity
  8
Fixings
100
AcDbLine
 10
9848.993446391807
 20
-591.531692934086
 30
0.0
 11
9848.49630745961
 21
-591.531692934086
 31
0.0
  0
LINE
  5
1A5DF
330
1F
100
AcDbEntity
  8
Fixings
100
AcDbLine
 10
9848.993446391807
 20
-590.0899255473196
 30
0.0
 11
9848.49630745961
 21
-590.0899255473196
 31
0.0
  0
LINE
  5
1A5E0
330
1F
100
AcDbEntity
  8
Fixings
100
AcDbLine
 10
9848.515666546575
 20
-590.6048424711643
 30
0.0
 11
9848.993446391807
 21
-590.0899255473196
 31
0.0
  0
LINE
  5
1A5E1
330
1F
100
AcDbEntity
  8
Fixings
100
AcDbLine
 10
9848.993446391807
 20
-588.6824816794669
 30
0.0
 11
9848.49630745961
 21
-588.6824816794669
 31
0.0
  0
LINE
  5
1A5E2
330
1F
100
AcDbEntity
  8
Fixings
100
AcDbLine
 10
9848.515666546575
 20
-589.1973986033135
 30
0.0
 11
9848.993446391807
 21
-588.6824816794669
 31
0.0
  0
LINE
  5
1A5E3
330
1F
100
AcDbEntity
  8
Fixings
100
AcDbLine
 10
9848.49630745961
 20
-589.2024357260488
 30
0.0
 11
9848.49630745961
 21
-590.0899255473196
 31
0.0
  0
LINE
  5
1A5E4
330
1F
100
AcDbEntity
  8
Fixings
100
AcDbLine
 10
9846.354630200346
 20
-590.8794648305502
 30
0.0
 11
9846.800558055896
 21
-591.0511038051645
 31
0.0
  0
LINE
  5
1A5E5
330
1F
100
AcDbEntity
  8
Fixings
100
AcDbLine
 10
9846.800558055896
 20
-590.5018590863964
 30
0.0
 11
9846.354630200346
 21
-590.8794648305502
 31
0.0
  0
LINE
  5
1A5E6
330
1F
100
AcDbEntity
  8
Fixings
100
AcDbLine
 10
9846.354630200346
 20
-589.4720209626957
 30
0.0
 11
9846.800558055896
 21
-589.6436599373118
 31
0.0
  0
LINE
  5
1A5E7
330
1F
100
AcDbEntity
  8
Fixings
100
AcDbLine
 10
9846.800558055896
 20
-589.0944152185438
 30
0.0
 11
9846.354630200346
 21
-589.4720209626957
 31
0.0
  0
LINE
  5
1A5E8
330
1F
100
AcDbEntity
  8
Fixings
100
AcDbLine
 10
9846.784970709475
 20
-589.63766032073
 30
0.0
 11
9846.784970709475
 21
-590.5150582428777
 31
0.0
  0
LINE
  5
1A5E9
330
1F
100
AcDbEntity
  8
Fixings
100
AcDbLine
 10
9848.49630745961
 20
-588.6824816794669
 30
0.0
 11
9846.800558055896
 21
-589.0944152185438
 31
0.0
  0
LINE
  5
1A5EA
330
1F
100
AcDbEntity
  8
Fixings
100
AcDbLine
 10
9846.800558055896
 20
-591.0511038051645
 30
0.0
 11
9848.515666546575
 21
-590.6048424711643
 31
0.0
  0
LINE
  5
1A5EB
330
1F
100
AcDbEntity
  8
Fixings
100
AcDbLine
 10
9846.800558055896
 20
-589.6436599373118
 30
0.0
 11
9848.515666546575
 21
-589.1973986033135
 31
0.0
  0
LINE
  5
1A5EC
330
1F
100
AcDbEntity
  8
Fixings
100
AcDbLine
 10
9848.49630745961
 20
-590.0899255473196
 30
0.0
 11
9846.800558055896
 21
-590.5018590863964
 31
0.0
  0
LINE
  5
1A5ED
330
1F
100
AcDbEntity
  8
Fixings
100
AcDbLine
 10
9846.784970709475
 20
-588.2038142860984
 30
0.0
 11
9846.784970709475
 21
-589.1076143750251
 31
0.0
  0
LINE
  5
1A5EE
330
1F
100
AcDbEntity
  8
Fixings
100
AcDbLine
 10
9848.49630745961
 20
-590.6098795939015
 30
0.0
 11
9848.49630745961
 21
-591.531692934086
 31
0.0
  0
LINE
  5
1A5EF
330
1F
100
AcDbEntity
  8
Fixings
100
AcDbLine
 10
9848.49630745961
 20
-587.7606683392805
 30
0.0
 11
9848.49630745961
 21
-588.6824816794669
 31
0.0
  0
LINE
  5
1A5F0
330
1F
100
AcDbEntity
  8
Fixings
100
AcDbLine
 10
9848.49630745961
 20
-595.0381651389725
 30
0.0
 11
9848.49630745961
 21
-596.062961863925
 31
0.0
  0
LINE
  5
1A5F1
330
1F
100
AcDbEntity
  8
Fixings
100
AcDbLine
 10
9848.993446391807
 20
-596.0629618639268
 30
0.0
 11
9848.49630745961
 21
-596.0629618639268
 31
0.0
  0
LINE
  5
1A5F2
330
1F
100
AcDbEntity
  8
Fixings
100
AcDbLine
 10
9846.354630200346
 20
-593.7973273990064
 30
0.0
 11
9846.800558055896
 21
-593.9689663736226
 31
0.0
  0
LINE
  5
1A5F3
330
1F
100
AcDbEntity
  8
Fixings
100
AcDbLine
 10
9848.993446391807
 20
-593.0077881157758
 30
0.0
 11
9848.49630745961
 21
-593.0077881157758
 31
0.0
  0
LINE
  5
1A5F4
330
1F
100
AcDbEntity
  8
Fixings
100
AcDbLine
 10
9848.515666546575
 20
-593.5227050396224
 30
0.0
 11
9848.993446391807
 21
-593.0077881157758
 31
0.0
  0
LINE
  5
1A5F5
330
1F
100
AcDbEntity
  8
Fixings
100
AcDbLine
 10
9846.784970709475
 20
-592.4868715753491
 30
0.0
 11
9846.784970709475
 21
-593.4329208113358
 31
0.0
  0
LINE
  5
1A5F6
330
1F
100
AcDbEntity
  8
Fixings
100
AcDbLine
 10
9846.354630200346
 20
-592.3212322173167
 30
0.0
 11
9846.800558055896
 21
-592.4928711919328
 31
0.0
  0
LINE
  5
1A5F7
330
1F
100
AcDbEntity
  8
Fixings
100
AcDbLine
 10
9848.49630745961
 20
-593.0077881157758
 30
0.0
 11
9846.800558055896
 21
-593.4197216548546
 31
0.0
  0
LINE
  5
1A5F8
330
1F
100
AcDbEntity
  8
Fixings
100
AcDbLine
 10
9846.800558055896
 20
-593.9689663736226
 30
0.0
 11
9848.515666546575
 21
-593.5227050396224
 31
0.0
  0
LINE
  5
1A5F9
330
1F
100
AcDbEntity
  8
Fixings
100
AcDbLine
 10
9846.800558055896
 20
-593.4197216548546
 30
0.0
 11
9846.354630200346
 21
-593.7973273990064
 31
0.0
  0
LINE
  5
1A5FA
330
1F
100
AcDbEntity
  8
Fixings
100
AcDbLine
 10
9848.993446391807
 20
-594.5182110923906
 30
0.0
 11
9848.49630745961
 21
-594.5182110923906
 31
0.0
  0
LINE
  5
1A5FB
330
1F
100
AcDbEntity
  8
Fixings
100
AcDbLine
 10
9848.515666546575
 20
-595.0331280162354
 30
0.0
 11
9848.993446391807
 21
-594.5182110923906
 31
0.0
  0
LINE
  5
1A5FC
330
1F
100
AcDbEntity
  8
Fixings
100
AcDbLine
 10
9846.354630200346
 20
-595.3077503756194
 30
0.0
 11
9846.800558055896
 21
-595.4793893502337
 31
0.0
  0
LINE
  5
1A5FD
330
1F
100
AcDbEntity
  8
Fixings
100
AcDbLine
 10
9846.800558055896
 20
-594.9301446314657
 30
0.0
 11
9846.354630200346
 21
-595.3077503756194
 31
0.0
  0
LINE
  5
1A5FE
330
1F
100
AcDbEntity
  8
Fixings
100
AcDbLine
 10
9846.800558055896
 20
-595.4793893502337
 30
0.0
 11
9848.515666546575
 21
-595.0331280162354
 31
0.0
  0
LINE
  5
1A5FF
330
1F
100
AcDbEntity
  8
Fixings
100
AcDbLine
 10
9848.49630745961
 20
-594.5182110923906
 30
0.0
 11
9846.800558055896
 21
-594.9301446314657
 31
0.0
  0
LINE
  5
1A600
330
1F
100
AcDbEntity
  8
Fixings
100
AcDbLine
 10
9846.784970709475
 20
-593.9629667570389
 30
0.0
 11
9846.784970709475
 21
-594.943343787947
 31
0.0
  0
LINE
  5
1A601
330
1F
100
AcDbEntity
  8
Fixings
100
AcDbLine
 10
9848.49630745961
 20
-593.5277421623595
 30
0.0
 11
9848.49630745961
 21
-594.5182110923887
 31
0.0
  0
LINE
  5
1A602
330
1F
100
AcDbEntity
  8
Fixings
100
AcDbLine
 10
9848.49630745961
 20
-599.500778478965
 30
0.0
 11
9848.49630745961
 21
-600.1303352013874
 31
0.0
  0
LINE
  5
1A603
330
1F
100
AcDbEntity
  8
Fixings
100
AcDbLine
 10
9846.784970709475
 20
-599.9360030736461
 30
0.0
 11
9846.784970709475
 21
-600.1303352013874
 31
0.0
  0
LINE
  5
1A604
330
1F
100
AcDbEntity
  8
Fixings
100
AcDbLine
 10
9846.354630200346
 20
-599.7703637156137
 30
0.0
 11
9846.800558055896
 21
-599.942002690228
 31
0.0
  0
LINE
  5
1A605
330
1F
100
AcDbEntity
  8
Fixings
100
AcDbLine
 10
9846.800558055896
 20
-599.942002690228
 30
0.0
 11
9848.515666546575
 21
-599.4957413562278
 31
0.0
  0
LINE
  5
1A606
330
1F
100
AcDbEntity
  8
Fixings
100
AcDbLine
 10
9848.993446391807
 20
-598.9808244323831
 30
0.0
 11
9848.49630745961
 21
-598.9808244323831
 31
0.0
  0
LINE
  5
1A607
330
1F
100
AcDbEntity
  8
Fixings
100
AcDbLine
 10
9848.515666546575
 20
-599.4957413562278
 30
0.0
 11
9848.993446391807
 21
-598.9808244323831
 31
0.0
  0
LINE
  5
1A608
330
1F
100
AcDbEntity
  8
Fixings
100
AcDbLine
 10
9846.800558055896
 20
-599.39275797146
 30
0.0
 11
9846.354630200346
 21
-599.7703637156137
 31
0.0
  0
LINE
  5
1A609
330
1F
100
AcDbEntity
  8
Fixings
100
AcDbLine
 10
9848.49630745961
 20
-598.9808244323831
 30
0.0
 11
9846.800558055896
 21
-599.39275797146
 31
0.0
  0
LINE
  5
1A60A
330
1F
100
AcDbEntity
  8
Fixings
100
AcDbLine
 10
9848.993446391807
 20
-597.5047292506933
 30
0.0
 11
9848.49630745961
 21
-597.5047292506933
 31
0.0
  0
LINE
  5
1A60B
330
1F
100
AcDbEntity
  8
Fixings
100
AcDbLine
 10
9848.515666546575
 20
-598.0196461745381
 30
0.0
 11
9848.993446391807
 21
-597.5047292506933
 31
0.0
  0
LINE
  5
1A60C
330
1F
100
AcDbEntity
  8
Fixings
100
AcDbLine
 10
9848.49630745961
 20
-596.5829159105087
 30
0.0
 11
9848.49630745961
 21
-597.5047292506933
 31
0.0
  0
LINE
  5
1A60D
330
1F
100
AcDbEntity
  8
Fixings
100
AcDbLine
 10
9846.354630200346
 20
-598.294268533924
 30
0.0
 11
9846.800558055896
 21
-598.4659075085382
 31
0.0
  0
LINE
  5
1A60E
330
1F
100
AcDbEntity
  8
Fixings
100
AcDbLine
 10
9846.800558055896
 20
-597.9166627897702
 30
0.0
 11
9846.354630200346
 21
-598.294268533924
 31
0.0
  0
LINE
  5
1A60F
330
1F
100
AcDbEntity
  8
Fixings
100
AcDbLine
 10
9846.354630200346
 20
-596.8525011471556
 30
0.0
 11
9846.800558055896
 21
-597.0241401217699
 31
0.0
  0
LINE
  5
1A610
330
1F
100
AcDbEntity
  8
Fixings
100
AcDbLine
 10
9846.800558055896
 20
-596.4748954030019
 30
0.0
 11
9846.354630200346
 21
-596.8525011471556
 31
0.0
  0
LINE
  5
1A611
330
1F
100
AcDbEntity
  8
Fixings
100
AcDbLine
 10
9846.784970709475
 20
-597.0181405051881
 30
0.0
 11
9846.784970709475
 21
-597.9298619462515
 31
0.0
  0
LINE
  5
1A612
330
1F
100
AcDbEntity
  8
Fixings
100
AcDbLine
 10
9846.800558055896
 20
-597.0241401217699
 30
0.0
 11
9848.515666546575
 21
-596.5778787877716
 31
0.0
  0
LINE
  5
1A613
330
1F
100
AcDbEntity
  8
Fixings
100
AcDbLine
 10
9846.800558055896
 20
-598.4659075085382
 30
0.0
 11
9848.515666546575
 21
-598.0196461745381
 31
0.0
  0
LINE
  5
1A614
330
1F
100
AcDbEntity
  8
Fixings
100
AcDbLine
 10
9848.49630745961
 20
-597.5047292506933
 30
0.0
 11
9846.800558055896
 21
-597.9166627897702
 31
0.0
  0
LINE
  5
1A615
330
1F
100
AcDbEntity
  8
Fixings
100
AcDbLine
 10
9846.784970709475
 20
-598.4599078919564
 30
0.0
 11
9846.784970709475
 21
-599.4059571279413
 31
0.0
  0
LINE
  5
1A616
330
1F
100
AcDbEntity
  8
Fixings
100
AcDbLine
 10
9848.49630745961
 20
-598.0246832972753
 30
0.0
 11
9848.49630745961
 21
-598.9808244323831
 31
0.0
  0
LINE
  5
1A617
330
1F
100
AcDbEntity
  8
Fixings
100
AcDbLine
 10
9846.784970709475
 20
-595.4733897336518
 30
0.0
 11
9846.784970709475
 21
-596.488094559485
 31
0.0
  0
LINE
  5
1A618
330
1F
100
AcDbEntity
  8
Fixings
100
AcDbLine
 10
9848.49630745961
 20
-596.0629618639268
 30
0.0
 11
9846.800558055896
 21
-596.4748954030019
 31
0.0
  0
LINE
  5
1A619
330
1F
100
AcDbEntity
  8
Fixings
100
AcDbLine
 10
9848.515666546575
 20
-596.5778787877716
 30
0.0
 11
9848.993446391807
 21
-596.0629618639268
 31
0.0
  0
LINE
  5
1A61A
330
1F
100
AcDbEntity
  8
Fixings
100
AcDbLine
 10
9847.640639084541
 20
-603.3413366437944
 30
0.0
 11
9846.784970709475
 21
-600.1303352013874
 31
0.0
  0
LINE
  5
1A61B
330
1F
100
AcDbEntity
  8
Fixings
100
AcDbLine
 10
9847.640639084541
 20
-603.3413366437944
 30
0.0
 11
9848.49630745961
 21
-600.1303352013874
 31
0.0
  0
LINE
  5
1A61C
330
1F
100
AcDbEntity
  8
Fixings
100
AcDbLine
 10
9848.49630745961
 20
-592.0516469806698
 30
0.0
 11
9848.49630745961
 21
-593.0077881157758
 31
0.0
  0
LINE
  5
1A61D
330
1F
100
AcDbEntity
  8
Fixings
100
AcDbLine
 10
9846.800558055896
 20
-591.9436264731648
 30
0.0
 11
9846.354630200346
 21
-592.3212322173167
 31
0.0
  0
LINE
  5
1A61E
330
1F
100
AcDbEntity
  8
Fixings
100
AcDbLine
 10
9846.800558055896
 20
-592.4928711919328
 30
0.0
 11
9848.515666546575
 21
-592.0466098579327
 31
0.0
  0
LINE
  5
1A61F
330
1F
100
AcDbEntity
  8
Fixings
100
AcDbLine
 10
9848.49630745961
 20
-585.0487725403618
 30
0.0
 11
9848.49630745961
 21
-585.8332704248478
 31
0.0
  0
LINE
  5
1A620
330
1F
100
AcDbEntity
  8
Fixings
100
AcDbLine
 10
9846.784970709475
 20
-585.4839971350411
 30
0.0
 11
9846.784970709475
 21
-586.2584031204059
 31
0.0
  0
LINE
  5
1A621
330
1F
100
AcDbEntity
  8
Timber
100
AcDbLine
 10
9598.733385368209
 20
-586.3413366437925
 30
0.0
 11
9867.14063908454
 21
-586.3413366437925
 31
0.0
  0
SPLINE
  5
1A622
330
1F
100
AcDbEntity
  8
Timber Hatch
100
AcDbSpline
210
0.0
220
0.0
230
1.0
 70
     8
 71
     3
 72
    13
 73
     9
 74
     0
 42
0.000000001
 43
0.0000000001
 40
6.788063790414044
 40
6.788063790414044
 40
6.788063790414044
 40
6.788063790414044
 40
34.7118036962058
 40
90.00455775415721
 40
154.7993013019585
 40
209.4912928206376
 40
261.5099155467772
 40
265.6279470251034
 40
265.6279470251034
 40
265.6279470251034
 40
265.6279470251034
 10
9598.733385368211
 20
-622.6744157641951
 30
0.0
 10
9619.086249618376
 20
-621.6443678365122
 30
0.0
 10
9646.731166230352
 20
-619.0229997593815
 30
0.0
 10
9696.032250100616
 20
-626.5121673045869
 30
0.0
 10
9754.440653576153
 20
-613.7593469562379
 30
0.0
 10
9810.841792883485
 20
-635.7763290323455
 30
0.0
 10
9847.448605675223
 20
-617.5285181422441
 30
0.0
 10
9865.795493630004
 20
-619.8117662437889
 30
0.0
 10
9867.140639084539
 20
-620.0266526710074
 30
0.0
  0
SPLINE
  5
1A623
330
1F
100
AcDbEntity
  8
Timber Hatch
100
AcDbSpline
210
0.0
220
0.0
230
1.0
 70
     8
 71
     3
 72
    14
 73
    10
 74
     0
 42
0.000000001
 43
0.0000000001
 40
4.87221057248353
 40
4.87221057248353
 40
4.87221057248353
 40
4.87221057248353
 40
53.71276404164254
 40
99.6411724062977
 40
155.1971713247166
 40
191.0704491242206
 40
205.6827351518007
 40
238.2156353192693
 40
267.4055382081365
 40
267.4055382081365
 40
267.4055382081365
 40
267.4055382081365
 10
9598.733385368211
 20
-663.8070055980788
 30
0.0
 10
9625.879730966016
 20
-667.7419639703839
 30
0.0
 10
9657.084622096871
 20
-674.5546805544964
 30
0.0
 10
9707.480190088986
 20
-657.4500158604205
 30
0.0
 10
9751.274838005171
 20
-689.0778508023158
 30
0.0
 10
9785.058349251359
 20
-671.3599371975324
 30
0.0
 10
9811.502042619419
 20
-663.4931607254729
 30
0.0
 10
9837.561409950151
 20
-664.7772497023579
 30
0.0
 10
9857.641165020361
 20
-670.5041534325464
 30
0.0
 10
9867.14063908454
 20
-672.4973159561468
 30
0.0
  0
SPLINE
  5
1A624
330
1F
100
AcDbEntity
  8
Timber Hatch
100
AcDbSpline
210
0.0
220
0.0
230
1.0
 70
     8
 71
     3
 72
    11
 73
     7
 74
     0
 42
0.000000001
 43
0.0000000001
 40
3.92578997464385
 40
3.92578997464385
 40
3.92578997464385
 40
3.92578997464385
 40
62.44705217759929
 40
149.0109529979953
 40
257.3156282417299
 40
285.880120905436
 40
285.880120905436
 40
285.880120905436
 40
285.880120905436
 10
9598.733385368211
 20
-702.1820373998416
 30
0.0
 10
9629.335958826743
 20
-702.2574916075136
 30
0.0
 10
9701.234560423062
 20
-702.7260211859084
 30
0.0
 10
9759.508294083921
 20
-675.5443519734872
 30
0.0
 10
9810.622071109287
 20
-704.1722719011541
 30
0.0
 10
9853.271649582316
 20
-692.7685305375052
 30
0.0
 10
9867.14063908454
 20
-691.5906681399956
 30
0.0
  0
SPLINE
  5
1A625
330
1F
100
AcDbEntity
  8
Timber Hatch
100
AcDbSpline
210
0.0
220
0.0
230
1.0
 70
     8
 71
     3
 72
    11
 73
     7
 74
     0
 42
0.000000001
 43
0.0000000001
 40
5.749967891344113
 40
5.749967891344113
 40
5.749967891344113
 40
5.749967891344113
 40
70.06605688732107
 40
161.0789412932527
 40
233.7448845431684
 40
263.8454083459743
 40
263.8454083459743
 40
263.8454083459743
 40
263.8454083459743
 10
9598.733385368211
 20
-741.5845114533586
 30
0.0
 10
9631.018672956178
 20
-737.8498684269906
 30
0.0
 10
9682.260859266905
 20
-729.3380330243053
 30
0.0
 10
9758.552632059277
 20
-738.7730206740634
 30
0.0
 10
9822.949490632197
 20
-729.8969006331499
 30
0.0
 10
9857.128150811329
 20
-730.747531220155
 30
0.0
 10
9867.14063908454
 20
-731.2992643196594
 30
0.0
  0
SPLINE
  5
1A626
330
1F
100
AcDbEntity
  8
Timber Hatch
100
AcDbSpline
210
0.0
220
0.0
230
1.0
 70
     8
 71
     3
 72
    11
 73
     7
 74
     0
 42
0.000000001
 43
0.0000000001
 40
4.807568785308998
 40
4.807568785308998
 40
4.807568785308998
 40
4.807568785308998
 40
87.15039756608874
 40
176.135809864929
 40
243.4205205046171
 40
263.4225411085259
 40
263.4225411085259
 40
263.4225411085259
 40
263.4225411085259
 10
9598.733385368211
 20
-643.5986407830405
 30
0.0
 10
9637.264241938437
 20
-640.3670611978341
 30
0.0
 10
9694.371236796383
 20
-634.2498953901558
 30
0.0
 10
9773.214457514953
 20
-657.5998478233104
 30
0.0
 10
9831.514540420675
 20
-642.130614197651
 30
0.0
 10
9860.495370907431
 20
-641.9223486022365
 30
0.0
 10
9867.14063908454
 20
-642.1563212632791
 30
0.0
  0
SPLINE
  5
1A627
330
1F
100
AcDbEntity
  8
Timber Hatch
100
AcDbSpline
210
0.0
220
0.0
230
1.0
 70
     8
 71
     3
 72
    15
 73
    11
 74
     0
 42
0.000000001
 43
0.0000000001
 40
3.084201148966544
 40
3.084201148966544
 40
3.084201148966544
 40
3.084201148966544
 40
30.64857629387879
 40
68.27149730876654
 40
100.9080981026386
 40
144.8872381719017
 40
166.7122640014071
 40
200.9691813621641
 40
231.4567044690905
 40
262.0101100714953
 40
262.0101100714953
 40
262.0101100714953
 40
262.0101100714953
 10
9598.733385368211
 20
-603.942830411177
 30
0.0
 10
9618.898284321245
 20
-601.93469502476
 30
0.0
 10
9640.392025852685
 20
-597.6431615031797
 30
0.0
 10
9672.796291016654
 20
-607.3385247156165
 30
0.0
 10
9710.698954520724
 20
-600.4532931018384
 30
0.0
 10
9743.735732731609
 20
-600.5283621814342
 30
0.0
 10
9776.558611436538
 20
-609.9948143850306
 30
0.0
 10
9805.033326233626
 20
-597.8001400009524
 30
0.0
 10
9836.714163059259
 20
-606.8621311109763
 30
0.0
 10
9856.912957750109
 20
-603.7108042835207
 30
0.0
 10
9867.140639084546
 20
-602.5558681670463
 30
0.0
  0
SPLINE
  5
1A628
330
1F
100
AcDbEntity
  8
Timber Hatch
100
AcDbSpline
210
0.0
220
0.0
230
1.0
 70
  1067
 71
     3
 72
    18
 73
    14
 74
    12
 42
0.000000001
 43
0.0000000001
 44
0.00001
 12
-0.9951583404865862
 22
0.0982846751023954
 32
0.0
 13
-0.9951583404865862
 23
0.0982846751023954
 33
0.0
 40
0.0
 40
0.0
 40
0.0
 40
0.0
 40
12.59256343981916
 40
22.61939294449327
 40
31.43309468310633
 40
41.56890124117142
 40
54.19158436193598
 40
68.15216895720519
 40
82.30351961493454
 40
92.75018966839164
 40
98.99504345212896
 40
111.6028184889727
 40
125.1666345558201
 40
125.1666345558201
 40
125.1666345558201
 40
125.1666345558201
 10
9820.249510567828
 20
-671.8994204734463
 30
0.0
 10
9816.072312389414
 20
-671.4868684713167
 30
0.0
 10
9807.745673967623
 20
-672.5954868852475
 30
0.0
 10
9800.523097565623
 20
-678.0341589215697
 30
0.0
 10
9786.500165258818
 20
-683.033473064871
 30
0.0
 10
9803.060292107993
 20
-687.5216337614179
 30
0.0
 10
9812.755467313778
 20
-688.9130225366997
 30
0.0
 10
9827.971304903613
 20
-688.6741514465117
 30
0.0
 10
9837.465906324261
 20
-686.854014899615
 30
0.0
 10
9854.904251332136
 20
-683.0648804567563
 30
0.0
 10
9842.008217702311
 20
-678.1629782543579
 30
0.0
 10
9833.971447845577
 20
-673.8508635995847
 30
0.0
 10
9824.748892130413
 20
-672.3437922252059
 30
0.0
 10
9820.249510567828
 20
-671.8994204734463
 30
0.0
 11
9820.249510567828
 21
-671.8994204734463
 31
0.0
 11
9807.771021187692
 21
-673.5906263504311
 31
0.0
 11
9798.888043824566
 21
-678.2414351205516
 31
0.0
 11
9791.27405030448
 21
-682.6808542434355
 31
0.0
 11
9800.580042384588
 21
-686.6974645054815
 31
0.0
 11
9813.05851668775
 21
-688.6000698851585
 31
0.0
 11
9827.017504807905
 21
-688.3886703824664
 31
0.0
 11
9840.976492928062
 21
-686.0632659974071
 31
0.0
 11
9850.70548464817
 21
-682.2580453825976
 31
0.0
 11
9845.206489328106
 21
-679.2984424894639
 31
0.0
 11
9833.573999227979
 21
-674.4362243611976
 31
0.0
 11
9820.249510567828
 21
-671.8994204734463
 31
0.0
  0
SPLINE
  5
1A629
330
1F
100
AcDbEntity
  8
Timber Hatch
100
AcDbSpline
210
0.0
220
0.0
230
1.0
 70
  1067
 71
     3
 72
    16
 73
    12
 74
    10
 42
0.000000001
 43
0.0000000001
 44
0.00001
 12
-0.9860019254018704
 22
0.1667339290720532
 32
0.0
 13
-0.9860019254018704
 23
0.1667339290720532
 33
0.0
 40
0.0
 40
0.0
 40
0.0
 40
0.0
 40
7.976912842792782
 40
14.4141159744782
 40
19.93687457286279
 40
27.54750258396534
 40
37.67894091304531
 40
42.53957633767255
 40
45.81965688103204
 40
52.41850656598749
 40
55.72847788534855
 40
55.72847788534855
 40
55.72847788534855
 40
55.72847788534855
 10
9820.546210379479
 20
-676.5298777296703
 30
0.0
 10
9817.924459905558
 20
-676.0865370562888
 30
0.0
 10
9813.812332718647
 20
-676.9352246023649
 30
0.0
 10
9804.68829640422
 20
-679.599784204464
 30
0.0
 10
9811.109805874075
 20
-686.5819569173375
 30
0.0
 10
9819.130646686128
 20
-684.399207106918
 30
0.0
 10
9825.574997235079
 20
-685.638819972107
 30
0.0
 10
9833.645243718434
 20
-681.8421690621545
 30
0.0
 10
9828.846564771758
 20
-677.801129395012
 30
0.0
 10
9825.04731182078
 20
-675.7822909446117
 30
0.0
 10
9821.634089744117
 20
-676.7138392374012
 30
0.0
 10
9820.546210379479
 20
-676.5298777296703
 30
0.0
 11
9820.546210379479
 21
-676.5298777296703
 31
0.0
 11
9812.612177888823
 21
-677.3559619401876
 31
0.0
 11
9806.992235066905
 21
-680.4950425183342
 31
0.0
 11
9810.463377108499
 21
-684.7906311357491
 31
0.0
 11
9818.066831822326
 21
-685.1210648199558
 31
0.0
 11
9828.149665093308
 21
-684.1297736227898
 31
0.0
 11
9832.116688877123
 21
-681.321116873396
 31
0.0
 11
9829.967888096799
 21
-678.8428938082088
 31
0.0
 11
9823.852063532662
 21
-676.3646707430216
 31
0.0
 11
9820.546210379479
 21
-676.5298777296703
 31
0.0
  0
SPLINE
  5
1A62A
330
1F
100
AcDbEntity
  8
Timber Hatch
100
AcDbSpline
210
0.0
220
0.0
230
1.0
 70
  1067
 71
     3
 72
    13
 73
     9
 74
     7
 42
0.000000001
 43
0.0000000001
 44
0.00001
 12
-0.9532383618988731
 22
0.3022194987163354
 32
0.0
 13
-0.9532383618988731
 23
0.3022194987163354
 33
0.0
 40
0.0
 40
0.0
 40
0.0
 40
0.0
 40
4.788720001038949
 40
7.081097953050733
 40
12.92727775503084
 40
16.64334659137634
 40
20.2446067881438
 40
21.68415529813362
 40
21.68415529813362
 40
21.68415529813362
 40
21.68415529813362
 10
9820.01453589612
 20
-679.4522072932395
 30
0.0
 10
9818.492938692992
 20
-678.9697924405039
 30
0.0
 10
9814.539816459339
 20
-678.8789592658377
 30
0.0
 10
9815.906823413278
 20
-684.4030331866877
 30
0.0
 10
9820.388024574771
 20
-682.9194550733514
 30
0.0
 10
9826.688987938071
 20
-680.8110646149191
 30
0.0
 10
9822.023069957777
 20
-679.3724866181349
 30
0.0
 10
9820.471946850632
 20
-679.5972271695951
 30
0.0
 10
9820.01453589612
 20
-679.4522072932395
 30
0.0
 11
9820.01453589612
 21
-679.4522072932395
 31
0.0
 11
9815.296558089301
 21
-680.2723388091344
 31
0.0
 11
9815.706817684546
 21
-682.5277103333028
 31
0.0
 11
9821.55300560904
 21
-682.5277103333028
 31
0.0
 11
9824.835067294017
 21
-680.7849210065706
 31
0.0
 11
9821.450436940985
 21
-679.5547237327264
 31
0.0
 11
9820.01453589612
 21
-679.4522072932395
 31
0.0
  0
LINE
  5
1A62B
330
1F
100
AcDbEntity
  8
Timber Hatch
 62
     2
100
AcDbLine
 10
9918.14062708454
 20
-610.3412886437909
 30
0.0
 11
9957.140639084542
 21
-766.3413366437944
 31
0.0
  0
LWPOLYLINE
  5
1A62D
330
1F
100
AcDbEntity
  8
Timber
100
AcDbPolyline
 90
        4
 70
     0
 43
0.5
 10
9937.140639084541
 20
-811.3413366437962
 10
9957.140639084542
 20
-811.3413366437962
 10
9957.140639084542
 20
-766.3413366437962
 10
9918.14062708454
 20
-766.3413366437962
  0
LWPOLYLINE
  5
1A62E
330
1F
100
AcDbEntity
  8
Timber
100
AcDbPolyline
 90
        4
 70
     0
 43
0.5
 10
9906.140651084541
 20
-766.3413366437962
 10
9867.14063908454
 20
-766.3413366437962
 10
9867.14063908454
 20
-811.3413366437962
 10
9887.140639084542
 20
-811.3413366437962
  0
LINE
  5
1A62F
330
1F
100
AcDbEntity
  8
Hatch
100
AcDbLine
 10
9867.14063908454
 20
-766.3413366437962
 30
0.0
 11
9906.140651084539
 21
-785.8413426437964
 31
0.0
  0
LINE
  5
1A630
330
1F
100
AcDbEntity
  8
Hatch
100
AcDbLine
 10
9918.14062708454
 20
-791.841330643796
 30
0.0
 11
9957.140639084542
 21
-811.3413366437962
 31
0.0
  0
LINE
  5
1A631
330
1F
100
AcDbEntity
  8
Hatch
100
AcDbLine
 10
9867.14063908454
 20
-811.3413366437962
 30
0.0
 11
9906.140651084539
 21
-791.8413306437978
 31
0.0
  0
LINE
  5
1A632
330
1F
100
AcDbEntity
  8
Hatch
100
AcDbLine
 10
9918.14062708454
 20
-785.8413426437983
 30
0.0
 11
9957.140639084542
 21
-766.3413366437962
 31
0.0
  0
LINE
  5
1A633
330
1F
100
AcDbEntity
  8
Timber
100
AcDbLine
 10
9957.140639084542
 20
-811.3413366437962
 30
0.0
 11
9957.140639084542
 21
-911.5532296701495
 31
0.0
  0
LINE
  5
1A634
330
1F
100
AcDbEntity
  8
Timber
100
AcDbLine
 10
9867.14063908454
 20
-811.3413366437962
 30
0.0
 11
9867.14063908454
 21
-907.8018622140898
 31
0.0
  0
LINE
  5
1A635
330
1F
100
AcDbEntity
  8
DEFPOINTS
100
AcDbLine
 10
9867.14063908454
 20
-907.8018622140898
 30
0.0
 11
9957.140639084542
 21
-911.5532296701495
 31
0.0
  0
SPLINE
  5
1A636
330
1F
100
AcDbEntity
  8
Timber Hatch
100
AcDbSpline
210
0.0
220
0.0
230
1.0
 70
     8
 71
     3
 72
    11
 73
     7
 74
     0
 42
0.000000001
 43
0.0000000001
 40
3.712450405477365
 40
3.712450405477365
 40
3.712450405477365
 40
3.712450405477365
 40
28.00650816451932
 40
59.00008038932256
 40
84.85880375036257
 40
101.7309563785951
 40
101.7309563785951
 40
101.7309563785951
 40
101.7309563785951
 10
9884.438645440436
 20
-811.3413366437962
 30
0.0
 10
9882.194165553821
 20
-819.2372332848007
 30
0.0
 10
9877.629572425428
 20
-837.2435207540457
 30
0.0
 10
9884.620714248725
 20
-864.6054564483748
 30
0.0
 10
9875.34857945641
 20
-888.613427670316
 30
0.0
 10
9877.53322472578
 20
-902.7109222505114
 30
0.0
 10
9878.753365706286
 20
-908.285902266587
 30
0.0
  0
SPLINE
  5
1A637
330
1F
100
AcDbEntity
  8
Timber Hatch
100
AcDbSpline
210
0.0
220
0.0
230
1.0
 70
     8
 71
     3
 72
    12
 73
     8
 74
     0
 42
0.000000001
 43
0.0000000001
 40
8.5209213073335
 40
8.5209213073335
 40
8.5209213073335
 40
8.5209213073335
 40
29.56177034903499
 40
48.09699066811049
 40
72.69042160271488
 40
93.75648364025602
 40
104.0771248460357
 40
104.0771248460357
 40
104.0771248460357
 40
104.0771248460357
 10
9898.832737719626
 20
-814.3413366438036
 30
0.0
 10
9896.715627396236
 20
-821.0353656677526
 30
0.0
 10
9893.074008628833
 20
-833.7162743189018
 30
0.0
 10
9890.771966421246
 20
-855.2296531821703
 30
0.0
 10
9896.395201634428
 20
-876.4378620017268
 30
0.0
 10
9891.859625101687
 20
-895.0282377013317
 30
0.0
 10
9892.609506500015
 20
-905.4521809674115
 30
0.0
 10
9893.002627748684
 20
-908.8798380210173
 30
0.0
  0
SPLINE
  5
1A638
330
1F
100
AcDbEntity
  8
Timber Hatch
100
AcDbSpline
210
0.0
220
0.0
230
1.0
 70
     8
 71
     3
 72
    11
 73
     7
 74
     0
 42
0.000000001
 43
0.0000000001
 40
28.92517915049119
 40
28.92517915049119
 40
28.92517915049119
 40
28.92517915049119
 40
52.88988348220462
 40
72.36438966697822
 40
90.540252681515
 40
106.3335653053967
 40
106.3335653053967
 40
106.3335653053967
 40
106.3335653053967
 10
9909.500604477832
 20
-835.2445420645745
 30
0.0
 10
9911.5098732873
 20
-843.1815049059277
 30
0.0
 10
9920.022741269049
 20
-857.6120880436155
 30
0.0
 10
9902.036513387626
 20
-875.9758538436708
 30
0.0
 10
9914.564635045406
 20
-893.3070423012322
 30
0.0
 10
9911.46058006532
 20
-904.4050806128797
 30
0.0
 10
9909.525735172767
 20
-909.5685518817262
 30
0.0
  0
SPLINE
  5
1A639
330
1F
100
AcDbEntity
  8
Timber Hatch
100
AcDbSpline
210
0.0
220
0.0
230
1.0
 70
     8
 71
     3
 72
    12
 73
     8
 74
     0
 42
0.000000001
 43
0.0000000001
 40
5.608431219214671
 40
5.608431219214671
 40
5.608431219214671
 40
5.608431219214671
 40
27.46667689547404
 40
49.0818741704083
 40
74.12728742035072
 40
91.94960687306739
 40
102.696633693417
 40
102.696633693417
 40
102.696633693417
 40
102.696633693417
 10
9926.259250085735
 20
-814.3413366437943
 30
0.0
 10
9926.054636590457
 20
-821.641509069137
 30
0.0
 10
9926.02128430016
 20
-836.1437308124987
 30
0.0
 10
9931.704145799784
 20
-858.7405858210949
 30
0.0
 10
9924.295610946417
 20
-880.2906816126924
 30
0.0
 10
9932.699676825963
 20
-897.8950898855291
 30
0.0
 10
9929.79964537238
 20
-906.9589857086084
 30
0.0
 10
9928.354534229786
 20
-910.3533712597164
 30
0.0
  0
SPLINE
  5
1A63A
330
1F
100
AcDbEntity
  8
Timber Hatch
100
AcDbSpline
210
0.0
220
0.0
230
1.0
 70
     8
 71
     3
 72
    12
 73
     8
 74
     0
 42
0.000000001
 43
0.0000000001
 40
2.124827550925981
 40
2.124827550925981
 40
2.124827550925981
 40
2.124827550925981
 40
25.01051623960835
 40
46.12983004408158
 40
65.51996401113626
 40
87.13516128607052
 40
102.6456307352269
 40
102.6456307352269
 40
102.6456307352269
 40
102.6456307352269
 10
9942.447259829908
 20
-811.3413366437962
 30
0.0
 10
9942.525720090106
 20
-818.9564783000751
 30
0.0
 10
9942.850140458988
 20
-833.5988748361051
 30
0.0
 10
9948.976379859255
 20
-854.6889479290111
 30
0.0
 10
9939.631741650075
 20
-874.7509950988206
 30
0.0
 10
9946.296999391769
 20
-893.6076694099757
 30
0.0
 10
9944.503085728491
 20
-905.8667974971449
 30
0.0
 10
9943.429892548058
 20
-910.9817402439803
 30
0.0
  0
LINE
  5
1A63B
330
1F
100
AcDbEntity
  8
Hebel
  6
HIDDEN
 48
20.0
100
AcDbLine
 10
9967.14063908454
 20
-553.3413366437944
 30
0.0
 11
9967.14063908454
 21
-538.3413366437943
 31
0.0
  0
LINE
  5
1A63C
330
1F
100
AcDbEntity
  8
Hebel
  6
HIDDEN
 48
20.0
100
AcDbLine
 10
9967.14063908454
 20
-553.3413366437944
 30
0.0
 11
9957.140639084542
 21
-555.3413366437943
 31
0.0
  0
LINE
  5
1A63D
330
1F
100
AcDbEntity
  8
Hebel
  6
HIDDEN
 48
20.0
100
AcDbLine
 10
9967.14063908454
 20
-538.3413366437943
 30
0.0
 11
9957.140639084542
 21
-536.3413366437944
 31
0.0
  0
LWPOLYLINE
  5
1A63E
330
1F
100
AcDbEntity
  8
Timber
100
AcDbPolyline
 90
        4
 70
     0
 43
0.5
 10
9906.140651084541
 20
-586.3413366437944
 10
9867.14063908454
 20
-586.3413366437944
 10
9867.14063908454
 20
-766.3413366437944
 10
9906.140651084541
 20
-766.3413366437944
  0
LINE
  5
1A63F
330
1F
100
AcDbEntity
  8
Timber Hatch
 62
     2
100
AcDbLine
 10
9867.14063908454
 20
-586.3413366437944
 30
0.0
 11
9906.140651084541
 21
-742.3413846437906
 31
0.0
  0
LINE
  5
1A640
102
{ACAD_REACTORS
330
1A52D
102
}
330
1F
100
AcDbEntity
  8
Fixings
100
AcDbLine
 10
9918.14062708454
 20
-811.3413366437962
 30
0.0
 11
9918.14062708454
 21
-463.3413366437943
 31
0.0
  0
HATCH
  5
1A641
330
1F
100
AcDbEntity
  8
Timber Hatch
100
AcDbHatch
 10
0.0
 20
0.0
 30
0.0
210
0.0
220
0.0
230
1.0
  2
SOLID
 70
     1
 71
     0
 91
        2
 92
        7
 72
     0
 73
     1
 93
        4
 10
9918.14062708454
 20
-463.3413366438016
 10
9912.14063908454
 20
-463.3413366438035
 10
9912.14063908454
 20
-811.3413366437962
 10
9918.14062708454
 20
-811.3413366437962
 97
        0
 92
        7
 72
     0
 73
     1
 93
        4
 10
9912.14063908454
 20
-463.3413366437999
 10
9906.140651084539
 20
-463.3413366437999
 10
9906.140651084541
 20
-811.3413366437944
 10
9912.14063908454
 20
-811.3413366437962
 97
        0
 75
     0
 76
     1
 47
0.9159064840394933
 98
        2
 10
9915.073676157049
 20
-529.4145626212776
 10
9909.575611213298
 20
-531.2463801437407
450
        1
451
        0
460
0.0
461
0.0
452
        1
462
1.0
453
        2
463
0.0
 63
     8
421
  8421504
463
1.0
 63
     7
421
 16777215
470
CYLINDER
1001
ACAD
1010
1901.68013097365
1020
-8766.495048166026
1030
0.0
  0
LINE
  5
1A642
102
{ACAD_REACTORS
330
1A52D
102
}
330
1F
100
AcDbEntity
  8
Fixings
100
AcDbLine
 10
9906.140651084541
 20
-811.3413366437962
 30
0.0
 11
9906.140651084541
 21
-463.3413366437943
 31
0.0
  0
LINE
  5
1A643
330
1F
100
AcDbEntity
  8
Fixings
  6
CENTER
 48
50.0
100
AcDbLine
 10
9912.14063908454
 20
-443.9358303548088
 30
0.0
 11
9912.14063908454
 21
-811.3413366437962
 31
0.0
  0
LINE
  5
1A644
330
1F
100
AcDbEntity
  8
Fixings
  6
CENTER
 48
50.0
100
AcDbLine
 10
9912.14063908454
 20
-814.3413366437963
 30
0.0
 11
9912.14063908454
 21
-843.0787791039438
 31
0.0
  0
LINE
  5
1A645
330
1F
100
AcDbEntity
  8
Fixings
100
AcDbLine
 10
9918.14062708454
 20
-833.3195459145754
 30
0.0
 11
9918.14062708454
 21
-826.3413126437953
 31
0.0
  0
LINE
  5
1A646
330
1F
100
AcDbEntity
  8
Fixings
100
AcDbLine
 10
9906.140651084541
 20
-833.3195459145754
 30
0.0
 11
9906.140651084541
 21
-826.3413126437953
 31
0.0
  0
LINE
  5
1A647
330
1F
100
AcDbEntity
  8
Fixings
  6
DASHED
 48
5.0
100
AcDbLine
 10
9908.06564723454
 20
-833.3195459145754
 30
0.0
 11
9908.06564723454
 21
-826.3413126437953
 31
0.0
  0
LINE
  5
1A648
330
1F
100
AcDbEntity
  8
Fixings
  6
DASHED
 48
5.0
100
AcDbLine
 10
9916.215630934541
 20
-833.3195459145754
 30
0.0
 11
9916.215630934541
 21
-826.3413126437953
 31
0.0
  0
LINE
  5
1A649
330
1F
100
AcDbEntity
  8
Fixings
100
AcDbLine
 10
9908.06564723454
 20
-835.2445420645745
 30
0.0
 11
9916.215630934541
 21
-835.2445420645745
 31
0.0
  0
LINE
  5
1A64A
330
1F
100
AcDbEntity
  8
Fixings
100
AcDbLine
 10
9906.140651084541
 20
-833.3195459145754
 30
0.0
 11
9918.14062708454
 21
-833.3195459145754
 31
0.0
  0
LINE
  5
1A64B
330
1F
100
AcDbEntity
  8
Fixings
100
AcDbLine
 10
9908.06564723454
 20
-835.2445420645745
 30
0.0
 11
9906.140651084541
 21
-833.3195459145754
 31
0.0
  0
LINE
  5
1A64C
330
1F
100
AcDbEntity
  8
Fixings
100
AcDbLine
 10
9916.215630934541
 20
-835.2445420645745
 30
0.0
 11
9918.14062708454
 21
-833.3195459145754
 31
0.0
  0
LWPOLYLINE
  5
1A64D
330
1F
100
AcDbEntity
  8
Fixings
100
AcDbPolyline
 90
        6
 70
     0
 43
0.0
 10
9919.934852096083
 20
-814.3413366437963
 10
9937.140639084541
 20
-814.3413366437963
 10
9937.140639084541
 20
-811.3413366437962
 10
9887.140639084542
 20
-811.3413366437962
 10
9887.140639084542
 20
-814.3413366437963
 10
9912.14063908454
 20
-814.3413366437963
  0
INSERT
  5
1A64E
330
1F
100
AcDbEntity
  8
Fixings
100
AcDbBlockReference
 66
     1
  2
M12 Hex Nut Sv
 10
9912.14063908454
 20
-814.3413366437963
 30
0.0
 41
25.39999999999964
 42
25.39999999999964
 43
25.39999999999964
 50
90.0
  0
ATTRIB
  5
1A64F
330
1A64E
100
AcDbEntity
  8
0
100
AcDbText
 10
9912.14063908454
 20
-814.3413366437963
 30
0.0
 40
0.0042462523753828
  1

 50
90.0
 41
0.8
  7
ATTR
100
AcDbAttribute
  2
ESTCODE
 70
     9
  0
SEQEND
  5
1A650
330
1A64E
100
AcDbEntity
  8
Fixings
  0
ATTDEF
  5
1A651
330
1F
100
AcDbEntity
  8
Fixings
100
AcDbText
 10
9912.14063908454
 20
-459.8413436438004
 30
0.0
 40
0.005557800228472
  1

 50
270.0
 41
0.8
  7
ATTR
100
AcDbAttributeDefinition
  3

  2
ESTCODE
 70
     9
  0
ARC
  5
1A652
330
1F
100
AcDbEntity
  8
Fixings
100
AcDbCircle
 10
9912.14063908454
 20
-470.0813231638003
 30
0.0
 40
17.99996399999974
100
AcDbArc
 50
73.22135000001837
 51
106.7786499999816
  0
LINE
  5
1A653
330
1F
100
AcDbEntity
  8
Fixings
100
AcDbLine
 10
9903.84065568454
 20
-459.8413436438004
 30
0.0
 11
9920.440622484541
 21
-459.8413436438004
 31
0.0
  0
LINE
  5
1A654
330
1F
100
AcDbEntity
  8
Fixings
100
AcDbLine
 10
9904.346426072997
 20
-452.0813591637997
 30
0.0
 11
9919.934852096083
 21
-452.0813591637997
 31
0.0
  0
LINE
  5
1A655
330
1F
100
AcDbEntity
  8
Fixings
100
AcDbLine
 10
9901.74835536915
 20
-459.2413448438001
 30
0.0
 11
9922.532922799932
 21
-459.2413448438001
 31
0.0
  0
LINE
  5
1A656
330
1F
100
AcDbEntity
  8
Fixings
100
AcDbLine
 10
9906.944497676843
 20
-459.2413448438001
 30
0.0
 11
9906.944497676843
 21
-452.8477958309249
 31
0.0
  0
LINE
  5
1A657
330
1F
100
AcDbEntity
  8
Fixings
100
AcDbLine
 10
9901.74835536915
 20
-459.2413448438001
 30
0.0
 11
9901.74835536915
 21
-452.8477958309249
 31
0.0
  0
ARC
  5
1A658
330
1F
100
AcDbEntity
  8
Fixings
100
AcDbCircle
 10
9904.346426072997
 20
-456.8686097892805
 30
0.0
 40
4.787250625479532
100
AcDbArc
 50
57.13278000002691
 51
122.8672199999731
  0
LINE
  5
1A659
330
1F
100
AcDbEntity
  8
Fixings
100
AcDbLine
 10
9903.84065568454
 20
-459.2413448438001
 30
0.0
 11
9901.74835536915
 21
-459.2413448438001
 31
0.0
  0
LINE
  5
1A65A
330
1F
100
AcDbEntity
  8
Fixings
100
AcDbLine
 10
9903.84065568454
 20
-459.8413436438004
 30
0.0
 11
9903.84065568454
 21
-459.2413448438001
 31
0.0
  0
LINE
  5
1A65B
330
1F
100
AcDbEntity
  8
Fixings
100
AcDbLine
 10
9917.336780492236
 20
-459.2413448438001
 30
0.0
 11
9917.336780492236
 21
-452.8477958309249
 31
0.0
  0
LINE
  5
1A65C
330
1F
100
AcDbEntity
  8
Fixings
100
AcDbLine
 10
9922.532922799932
 20
-459.2413448438001
 30
0.0
 11
9922.532922799932
 21
-452.8477958309249
 31
0.0
  0
ARC
  5
1A65D
330
1F
100
AcDbEntity
  8
Fixings
100
AcDbCircle
 10
9919.934852096083
 20
-456.8686097892805
 30
0.0
 40
4.787250625479532
100
AcDbArc
 50
57.13278000002691
 51
122.8672199999731
  0
LINE
  5
1A65E
330
1F
100
AcDbEntity
  8
Fixings
100
AcDbLine
 10
9920.440622484541
 20
-459.2413448438001
 30
0.0
 11
9922.532922799932
 21
-459.2413448438001
 31
0.0
  0
LINE
  5
1A65F
330
1F
100
AcDbEntity
  8
Fixings
100
AcDbLine
 10
9920.440622484541
 20
-459.8413436438004
 30
0.0
 11
9920.440622484541
 21
-459.2413448438001
 31
0.0
  0
INSERT
  5
1A660
330
1F
100
AcDbEntity
  8
Fixings
100
AcDbBlockReference
 66
     1
  2
M12 Standard Washer Sv
 10
9912.14063908454
 20
-463.3413366437999
 30
0.0
 41
25.39999999999964
 42
25.39999999999964
 43
25.39999999999964
 50
270.0
  0
ATTRIB
  5
1A661
330
1A660
100
AcDbEntity
  8
0
100
AcDbText
 10
9912.14063908454
 20
-463.3413366437999
 30
0.0
 40
0.0085067481428347
  1

 50
270.0
 41
0.8
  7
ATTR
100
AcDbAttribute
  2
ESTCODE
 70
     9
  0
SEQEND
  5
1A662
330
1A660
100
AcDbEntity
  8
Fixings
  0
VIEWPORT
  5
1E4E
102
{ACAD_XDICTIONARY
360
1E4F
102
}
330
1E4C
100
AcDbEntity
 67
     1
  8
0
100
AcDbViewport
 10
101.8116638660431
 20
146.5204786841235
 30
0.0
 40
468.8953895341177
 41
316.6188034032507
 68
     1
 69
     1
 12
101.8116638660431
 22
146.5204786841235
 13
0.0
 23
0.0
 14
0.5
 24
0.5
 15
0.5
 25
0.5
 16
0.0
 26
0.0
 36
1.0
 17
0.0
 27
0.0
 37
0.0
 42
50.0
 43
0.0
 44
0.0
 45
316.6188034032507
 50
0.0
 51
0.0
 72
  1000
 90
   819232
  1

281
     0
 71
     1
 74
     0
110
0.0
120
0.0
130
0.0
111
1.0
121
0.0
131
0.0
112
0.0
122
1.0
132
0.0
 79
     0
146
0.0
170
     0
  0
VIEWPORT
  5
1E51
102
{ACAD_XDICTIONARY
360
1E52
102
}
330
1E4C
100
AcDbEntity
 67
     1
  8
DEFPOINTS
100
AcDbViewport
 10
103.6023183308171
 20
171.723177973022
 30
0.0
 40
190.0
 41
168.7245086574277
 68
     2
 69
     2
 12
9841.45284017508
 22
-744.2622723899071
 13
0.0
 23
0.0
 14
0.5
 24
0.5
 15
0.5
 25
0.5
 16
0.0
 26
0.0
 36
1.0
 17
0.0
 27
0.0
 37
0.0
 42
50.0
 43
0.0
 44
0.0
 45
843.6225732536673
 50
0.0
 51
0.0
 72
  1000
 90
   557152
  1

281
     0
 71
     1
 74
     0
110
0.0
120
0.0
130
0.0
111
1.0
121
0.0
131
0.0
112
0.0
122
1.0
132
0.0
 79
     0
146
0.0
170
     0
  0
INSERT
  5
1E60
330
1E4C
100
AcDbEntity
 67
     1
  8
Border
100
AcDbBlockReference
 66
     1
  2
A4 Title Block
 10
61.99655853305626
 20
30.100352352605
 30
0.0
  0
ATTRIB
  5
1E61
330
1E60
100
AcDbEntity
 67
     1
  8
Title block
100
AcDbText
 10
90.77810676037371
 20
36.60697193191641
 30
0.0
 40
4.0
  1
Supercrete™ Soundfloor
100
AcDbAttribute
  2
TITLE
 70
     0
1001
AcDbAttr
1070
     0
1070
     1
  0
ATTRIB
  5
1E62
330
1E60
100
AcDbEntity
 67
     1
  8
Title block
100
AcDbText
 10
82.96592949879572
 20
19.43299962412823
 30
0.0
 40
2.5
  1
July 2013
100
AcDbAttribute
  2
DATE
 70
     0
1001
AcDbAttr
1070
     0
1070
     1
  0
ATTRIB
  5
1E63
330
1E60
100
AcDbEntity
 67
     1
  8
Title block
100
AcDbText
 10
125.2328555345641
 20
19.43299962412823
 30
0.0
 40
2.5
  1
1:5
100
AcDbAttribute
  2
SCALE
 70
     0
1001
AcDbAttr
1070
     0
1070
     1
  0
ATTRIB
  5
1E64
330
1E60
100
AcDbEntity
 67
     1
  8
Title block
100
AcDbText
 10
173.8020109364281
 20
18.56063876145504
 30
0.0
 40
4.0
  1
3.5.3
100
AcDbAttribute
  2
DRGNO
 70
     0
1001
AcDbAttr
1070
     0
1070
     1
  0
ATTRIB
  5
1E65
330
1E60
100
AcDbEntity
 67
     1
  8
Title block
100
AcDbText
 10
70.14194249245384
 20
27.97972521750728
 30
0.0
 40
4.0
  1
Platform Floor External Interstorey Bracing Wall 
100
AcDbAttribute
  2
TITLE2
 70
     0
1001
AcDbAttr
1070
     0
1070
     1
  0
SEQEND
  5
1E66
330
1E60
100
AcDbEntity
 67
     1
  8
Border
  0
MTEXT
  5
1E6C
102
{ACAD_XDICTIONARY
360
1E6D
102
}
330
1E4C
100
AcDbEntity
 67
     1
  8
Hebel @ 1
100
AcDbMText
 10
106.0795258258244
 20
207.3351261892826
 30
0.0
 40
2.5
 41
0.0
 71
     4
 72
     1
  1
\A1;
  7
1
 73
     1
 44
1.0
1001
AcadAnnotative
1000
AnnotativeData
1002
{
1070
     1
1070
     0
1002
}
  0
MTEXT
  5
1E77
102
{ACAD_XDICTIONARY
360
1E78
102
}
330
1E4C
100
AcDbEntity
 67
     1
  8
Hebel @ 1
100
AcDbMText
 10
104.0795258258244
 20
207.3351261892826
 30
0.0
 40
2.5
 41
0.0
 71
     6
 72
     1
  1
\A1;
  7
1
 73
     1
 44
1.0
1001
AcadAnnotative
1000
AnnotativeData
1002
{
1070
     1
1070
     0
1002
}
  0
MTEXT
  5
196EB
102
{ACAD_XDICTIONARY
360
1A7D7
102
}
330
1E4C
100
AcDbEntity
 67
     1
  8
TEXT
100
AcDbMText
 10
59.2148887274933
 20
215.099831535029
 30
0.0
 40
2.5
 41
22.47937678210326
 71
     1
 72
     5
  1
Supercrete{\fScript MT Bold|b0|i1|c0|p66;\U+2122} Soundfloor
  7
1
 73
     1
 44
1.0
 90
        3
 63
   256
 45
1.5
441
  3932462
1001
ACAD
1000
ACAD_MTEXT_DEFINED_HEIGHT_BEGIN
1070
    46
1040
7.591479229871652
1000
ACAD_MTEXT_DEFINED_HEIGHT_END
  0
MTEXT
  5
19A4C
330
1E4C
100
AcDbEntity
 67
     1
  8
TEXT
100
AcDbMText
 10
141.6766561403642
 20
199.9668802669789
 30
0.0
 40
2.5
 41
30.21616927705429
 71
     1
 72
     5
  1
Double blocking between joists
  7
1
 73
     1
 44
1.0
  0
LEADER
  5
19A4D
102
{ACAD_XDICTIONARY
360
19A4E
102
}
330
1E4C
100
AcDbEntity
 67
     1
  8
TEXT @ 1
100
AcDbLeader
  3
1
 72
     1
 76
     4
 10
122.4256826353232
 20
185.3188977237435
 30
0.0
 10
127.6530977889417
 20
194.1610162155193
 30
0.0
 10
135.6330672092574
 20
198.1534113579975
 30
0.0
 10
140.8228596874864
 20
198.675485141617
 30
0.0
213
-12.03522500965573
223
4.013081769630161
233
0.0
1001
AcadAnnotative
1000
AnnotativeData
1002
{
1070
     1
1070
     0
1002
}
1001
ACAD
1000
DSTYLE
1002
{
1070
    40
1040
1.0
1070
   147
1040
1.0
1070
    77
1070
     0
1002
}
  0
LEADER
  5
19A57
102
{ACAD_XDICTIONARY
360
19A58
102
}
330
1E4C
100
AcDbEntity
 67
     1
  8
TEXT @ 1
100
AcDbLeader
  3
1
 72
     1
 76
     4
 10
105.5788493451923
 20
218.5962598133711
 30
0.0
 10
98.54177963832531
 20
227.862491859086
 30
0.0
 10
95.21235467795349
 20
231.1461587714575
 30
0.0
 10
90.46401980641121
 20
231.568029177867
 30
0.0
213
-12.03522500965573
223
4.013081769630161
233
0.0
1001
AcadAnnotative
1000
AnnotativeData
1002
{
1070
     1
1070
     0
1002
}
1001
ACAD
1000
DSTYLE
1002
{
1070
    40
1040
1.0
1070
   147
1040
1.0
1070
    77
1070
     0
1002
}
  0
MTEXT
  5
19A5C
330
1E4C
100
AcDbEntity
 67
     1
  8
TEXT
100
AcDbMText
 10
55.02300267917694
 20
235.432116832323
 30
0.0
 40
2.5
 41
36.47453305916963
 71
     1
 72
     5
  1
14 -10 x 100mm coarse threaded bugle head screws at 300 crs 
  7
1
 73
     1
 44
1.0
1001
ACAD
1000
ACAD_MTEXT_DEFINED_HEIGHT_BEGIN
1070
    46
1040
3.918140766449823
1000
ACAD_MTEXT_DEFINED_HEIGHT_END
  0
MTEXT
  5
19BED
102
{ACAD_XDICTIONARY
360
1A743
102
}
330
1E4C
100
AcDbEntity
 67
     1
  8
TEXT
100
AcDbMText
 10
19.32719343423787
 20
80.76262507215233
 30
0.0
 40
2.5
 41
75.01303696932712
 71
     1
 72
     5
  1
{\fSwis721 BT|b1|i1|c0|p34;\LNOTE\P\pt7.5;}This arrangement applies to Platform Floors only.\PBracing walls for Fitted Floors to comply with NZS 3604.\PLimit panel bearing stress to 1MPa
  7
1
 73
     1
 44
1.0
 90
        3
 63
   256
 45
1.5
441
  3932587
1001
ACAD
1000
ACAD_MTEXT_DEFINED_HEIGHT_BEGIN
1070
    46
1040
16.30362872027115
1000
ACAD_MTEXT_DEFINED_HEIGHT_END
  0
MTEXT
  5
19DB8
330
1E4C
100
AcDbEntity
 67
     1
  8
TEXT
100
AcDbMText
 10
142.6150736774477
 20
217.8474193609786
 30
0.0
 40
2.5
 41
15.62277216111818
 71
     1
 72
     5
  1
Selected cladding
  7
1
 73
     1
 44
1.0
 90
        3
 63
   256
 45
1.5
441
  3932462
1001
ACAD
1000
ACAD_MTEXT_DEFINED_HEIGHT_BEGIN
1070
    46
1040
7.72641655186976
1000
ACAD_MTEXT_DEFINED_HEIGHT_END
  0
MTEXT
  5
1A0B3
330
1E4C
100
AcDbEntity
 67
     1
  8
TEXT
100
AcDbMText
 10
141.4107489694609
 20
171.1023624082285
 30
0.0
 40
2.5
 41
32.66343984441744
 71
     1
 72
     5
  1
Hold-down bolt to project specification
  7
1
 73
     1
 44
1.0
1001
ACAD
1000
ACAD_MTEXT_DEFINED_HEIGHT_BEGIN
1070
    46
1040
8.175538243642108
1000
ACAD_MTEXT_DEFINED_HEIGHT_END
  0
MTEXT
  5
1A397
330
1E4C
100
AcDbEntity
 67
     1
  8
TEXT
100
AcDbMText
 10
141.6766561403642
 20
232.0093979751431
 30
0.0
 40
2.5
 41
30.21616927705429
 71
     1
 72
     5
  1
Remove tongue if required
  7
1
 73
     1
 44
1.0
  0
LEADER
  5
1A398
102
{ACAD_XDICTIONARY
360
1A399
102
}
330
1E4C
100
AcDbEntity
 67
     1
  8
TEXT @ 1
100
AcDbLeader
  3
1
 72
     1
 76
     4
 10
128.7398772197931
 20
212.9073636593307
 30
0.0
 10
132.1841970303804
 20
226.2035339236835
 30
0.0
 10
135.6330672092574
 20
230.1959290661617
 30
0.0
 10
140.8228596874864
 20
230.7180028497812
 30
0.0
213
-12.03522500965573
223
4.013081769630161
233
0.0
1001
AcadAnnotative
1000
AnnotativeData
1002
{
1070
     1
1070
     0
1002
}
1001
ACAD
1000
DSTYLE
1002
{
1070
    40
1040
1.0
1070
   147
1040
1.0
1070
    77
1070
     0
1002
}
  0
LEADER
  5
1A39D
102
{ACAD_XDICTIONARY
360
1A39E
102
}
330
1E4C
100
AcDbEntity
 67
     1
  8
TEXT @ 1
100
AcDbLeader
  3
1
 72
     1
 76
     4
 10
120.2160807339336
 20
176.3703322983798
 30
0.0
 10
128.0083878579486
 20
171.015711039307
 30
0.0
 10
135.6967303820335
 20
169.6124025685245
 30
0.0
 10
140.8228596874864
 20
169.5824388658389
 30
0.0
213
-12.03522500965573
223
4.013081769630161
233
0.0
1001
AcadAnnotative
1000
AnnotativeData
1002
{
1070
     1
1070
     0
1002
}
1001
ACAD
1000
DSTYLE
1002
{
1070
    40
1040
1.0
1070
   147
1040
1.0
1070
    77
1070
     0
1002
}
  0
MTEXT
  5
1A3A2
330
1E4C
100
AcDbEntity
 67
     1
  8
TEXT
100
AcDbMText
 10
63.79467811205614
 20
194.9004841569079
 30
0.0
 40
2.5
 41
20.8982817873515
 71
     1
 72
     5
  1
Joist sized from Loading Tables
  7
1
 73
     1
 44
1.0
 90
        3
 63
   256
 45
1.5
441
  3932462
1001
ACAD
1000
ACAD_MTEXT_DEFINED_HEIGHT_BEGIN
1070
    46
1040
11.27569171587743
1000
ACAD_MTEXT_DEFINED_HEIGHT_END
  0
MTEXT
  5
1A663
330
1E4C
100
AcDbEntity
 67
     1
  8
TEXT
100
AcDbMText
 10
141.4107489694609
 20
142.6973972423613
 30
0.0
 40
2.5
 41
27.82621360921269
 71
     1
 72
     5
  1
Lower storey wall
  7
1
 73
     1
 44
1.0
1001
ACAD
1000
ACAD_MTEXT_DEFINED_HEIGHT_BEGIN
1070
    46
1040
3.743557561609236
1000
ACAD_MTEXT_DEFINED_HEIGHT_END
  0
LEADER
  5
1A664
102
{ACAD_XDICTIONARY
360
1A665
102
}
330
1E4C
100
AcDbEntity
 67
     1
  8
TEXT @ 1
100
AcDbLeader
  3
1
 72
     1
 76
     4
 10
120.2160807339336
 20
147.9653671325127
 30
0.0
 10
128.0083878579486
 20
142.6107458734399
 30
0.0
 10
135.6967303820335
 20
141.2074374026574
 30
0.0
 10
140.8228596874864
 20
141.1774736999717
 30
0.0
213
-12.03522500965573
223
4.013081769630161
233
0.0
1001
AcadAnnotative
1000
AnnotativeData
1002
{
1070
     1
1070
     0
1002
}
1001
ACAD
1000
DSTYLE
1002
{
1070
    40
1040
1.0
1070
   147
1040
1.0
1070
    77
1070
     0
1002
}
  0
MTEXT
  5
1A669
330
1E4C
100
AcDbEntity
 67
     1
  8
TEXT
100
AcDbMText
 10
141.4107489694609
 20
253.6975894963902
 30
0.0
 40
2.5
 41
27.82621360921269
 71
     1
 72
     5
  1
Upper storey wall
  7
1
 73
     1
 44
1.0
1001
ACAD
1000
ACAD_MTEXT_DEFINED_HEIGHT_BEGIN
1070
    46
1040
3.743557561609236
1000
ACAD_MTEXT_DEFINED_HEIGHT_END
  0
LEADER
  5
1A66A
102
{ACAD_XDICTIONARY
360
1A66B
102
}
330
1E4C
100
AcDbEntity
 67
     1
  8
TEXT @ 1
100
AcDbLeader
  3
1
 72
     1
 76
     4
 10
120.2160807339336
 20
240.4878078689734
 30
0.0
 10
128.0083878579486
 20
249.1455876576608
 30
0.0
 10
135.6967303820335
 20
252.2076296566863
 30
0.0
 10
140.8228596874864
 20
252.1776659540007
 30
0.0
213
-12.03522500965573
223
4.013081769630161
233
0.0
1001
AcadAnnotative
1000
AnnotativeData
1002
{
1070
     1
1070
     0
1002
}
1001
ACAD
1000
DSTYLE
1002
{
1070
    40
1040
1.0
1070
   147
1040
1.0
1070
    77
1070
     0
1002
}
  0
MTEXT
  5
1A987
102
{ACAD_XDICTIONARY
360
1A988
102
}
330
1E4C
100
AcDbEntity
 67
     1
  8
TEXT
100
AcDbMText
 10
112.0568735221444
 20
49.42180079226071
 30
0.0
 40
2.5
 41
80.96515538281812
 71
     1
 72
     5
  1
{\fTahoma|b1|i0|c0|p34;\C7;Copyright \U+00A9 Superbuild International Ltd 2013}
  7
ROMANS
 73
     1
 44
1.0
 90
        3
 63
   256
 45
1.5
441
        0
1001
ACAD
1000
ACAD_MTEXT_DEFINED_HEIGHT_BEGIN
1070
    46
1040
3.019389854573114
1000
ACAD_MTEXT_DEFINED_HEIGHT_END
  0
ENDSEC
  0
SECTION
  2
OBJECTS
  0
DICTIONARY
  5
C
330
0
100
AcDbDictionary
281
     1
  3
ACAD_2007HEADERVARS_RT
350
1AA45
  3
ACAD_CIP_PREVIOUS_PRODUCT_INFO
350
1A774
  3
ACAD_COLOR
350
73
  3
ACAD_DETAILVIEWSTYLE
350
1A75E
  3
ACAD_GROUP
350
D
  3
ACAD_IMAGE_DICT
350
1651
  3
ACAD_IMAGE_VARS
350
1658
  3
ACAD_LAYOUT
350
1A
  3
ACAD_MATERIAL
350
72
  3
ACAD_MLEADERSTYLE
350
D7
  3
ACAD_MLINESTYLE
350
17
  3
ACAD_PLOTSETTINGS
350
19
  3
ACAD_PLOTSTYLENAME
350
E
  3
ACAD_SCALELIST
350
B6
  3
ACAD_SECTIONVIEWSTYLE
350
1A75B
  3
ACAD_TABLESTYLE
350
86
  3
ACAD_VISUALSTYLE
350
99
  3
AcadDim
350
16F0
  3
ACDB_RECOMPOSE_DATA
350
1AA44
  3
AcDbVariableDictionary
350
66
  3
AcDsDecomposeData
350
1AA4C
  3
AEC_PROPERTY_SET_DEFS
350
17F
  0
DICTIONARY
  5
11BA6
330
8
100
AcDbDictionary
280
     1
281
     1
  0
DICTIONARY
  5
1D5
330
2
100
AcDbDictionary
280
     1
281
     1
  3
ACAD_LAYERSTATES
360
1D6
  0
DICTIONARY
  5
E6
330
10
100
AcDbDictionary
280
     1
281
     1
  0
DICTIONARY
  5
162E
330
162D
100
AcDbDictionary
280
     1
281
     1
  0
DICTIONARY
  5
1630
330
162F
100
AcDbDictionary
280
     1
281
     1
  0
DICTIONARY
  5
1DCC
330
1DCB
100
AcDbDictionary
280
     1
281
     1
  0
DICTIONARY
  5
1A97B
330
1A97A
100
AcDbDictionary
280
     1
281
     1
  0
DICTIONARY
  5
1AA3D
330
1AA3C
100
AcDbDictionary
280
     1
281
     1
  3
ASDK_XREC_ANNO_SCALE_INFO
360
1AA3E
  0
DICTIONARY
  5
1AA40
330
1AA3F
100
AcDbDictionary
280
     1
281
     1
  3
ASDK_XREC_ANNO_SCALE_INFO
360
1AA41
  0
DICTIONARY
  5
15D
330
1F
100
AcDbDictionary
280
     1
281
     1
  3
ACAD_SORTENTS
360
195
  0
DICTIONARY
  5
19104
330
1E4C
100
AcDbDictionary
280
     1
281
     1
  3
ACAD_SORTENTS
360
19105
  0
DICTIONARY
  5
164D
330
1636
100
AcDbDictionary
280
     1
281
     1
  3
ACAD_SORTENTS
360
1A8A2
  0
DICTIONARY
  5
1A894
330
1A893
100
AcDbDictionary
280
     1
281
     1
  3
ACAD_MTEXT_2008_RT
360
1AA8A
  0
DICTIONARY
  5
1A89F
330
1A89E
100
AcDbDictionary
280
     1
281
     1
  3
ACAD_MTEXT_2008_RT
360
1AA43
  0
IMAGEDEF_REACTOR
  5
1A8A1
330
1A8A0
100
AcDbRasterImageDefReactor
 90
        2
330
1A8A0
  0
DICTIONARY
  5
1E4F
330
1E4E
100
AcDbDictionary
280
     1
281
     1
  3
ASDK_XREC_ANNOTATION_SCALE_INFO
360
1E50
  0
DICTIONARY
  5
1E52
330
1E51
100
AcDbDictionary
280
     1
281
     1
  3
ASDK_XREC_ANNOTATION_SCALE_INFO
360
1E53
  0
DICTIONARY
  5
1E6D
330
1E6C
100
AcDbDictionary
280
     1
281
     1
  3
AcDbContextDataManager
360
1E6E
  0
DICTIONARY
  5
1E78
330
1E77
100
AcDbDictionary
280
     1
281
     1
  3
AcDbContextDataManager
360
1E79
  0
DICTIONARY
  5
1A7D7
330
196EB
100
AcDbDictionary
280
     1
281
     1
  3
ACAD_MTEXT_2008_RT
360
1AA75
  0
DICTIONARY
  5
19A4E
330
19A4D
100
AcDbDictionary
280
     1
281
     1
  3
AcDbContextDataManager
360
19A4F
  0
DICTIONARY
  5
19A58
330
19A57
100
AcDbDictionary
280
     1
281
     1
  3
AcDbContextDataManager
360
19A59
  0
DICTIONARY
  5
1A743
330
19BED
100
AcDbDictionary
280
     1
281
     1
  3
ACAD_MTEXT_2008_RT
360
1AA42
  0
DICTIONARY
  5
1A399
330
1A398
100
AcDbDictionary
280
     1
281
     1
  3
AcDbContextDataManager
360
1A39A
  0
DICTIONARY
  5
1A39E
330
1A39D
100
AcDbDictionary
280
     1
281
     1
  3
AcDbContextDataManager
360
1A39F
  0
DICTIONARY
  5
1A665
330
1A664
100
AcDbDictionary
280
     1
281
     1
  3
AcDbContextDataManager
360
1A666
  0
DICTIONARY
  5
1A66B
330
1A66A
100
AcDbDictionary
280
     1
281
     1
  3
AcDbContextDataManager
360
1A66C
  0
DICTIONARY
  5
1A988
330
1A987
100
AcDbDictionary
280
     1
281
     1
  3
ACAD_MTEXT_2008_RT
360
1AA8C
  0
DICTIONARY
  5
1AA45
102
{ACAD_REACTORS
330
C
102
}
330
C
100
AcDbDictionary
281
     1
  3
DIMFXL
350
1AA46
  0
XRECORD
  5
1A774
102
{ACAD_REACTORS
330
C
102
}
330
C
100
AcDbXrecord
280
     1
300
ACD
300
2013
300
ACD_F_S
  0
DICTIONARY
  5
73
102
{ACAD_REACTORS
330
C
102
}
330
C
100
AcDbDictionary
281
     1
  0
DICTIONARY
  5
1A75E
102
{ACAD_REACTORS
330
C
102
}
330
C
100
AcDbDictionary
281
     1
  3
Imperial24
350
1A75F
  0
DICTIONARY
  5
D
102
{ACAD_REACTORS
330
C
102
}
330
C
100
AcDbDictionary
281
     1
  0
DICTIONARY
  5
1651
102
{ACAD_REACTORS
330
C
102
}
330
C
100
AcDbDictionary
281
     1
  3
Hebel Supercrete Logo
350
1652
  3
Hebel Supercrete Logo_1
350
1653
  3
Supercrete Hi Res_1
350
1A79C
  0
RASTERVARIABLES
  5
1658
102
{ACAD_REACTORS
330
C
102
}
330
C
100
AcDbRasterVariables
 90
        0
 70
     1
 71
     1
 72
     1
  0
DICTIONARY
  5
1A
102
{ACAD_REACTORS
330
C
102
}
330
C
100
AcDbDictionary
281
     1
  3
3.5.3
350
1E9F
  3
Model
350
22
  0
DICTIONARY
  5
72
102
{ACAD_REACTORS
330
C
102
}
330
C
100
AcDbDictionary
281
     1
  3
ByBlock
350
97
  3
ByLayer
350
96
  3
Global
350
98
  0
DICTIONARY
  5
D7
102
{ACAD_REACTORS
330
C
102
}
330
C
100
AcDbDictionary
281
     1
  3
Standard
350
D8
  0
DICTIONARY
  5
17
102
{ACAD_REACTORS
330
C
102
}
330
C
100
AcDbDictionary
281
     1
  3
Standard
350
18
  0
DICTIONARY
  5
19
102
{ACAD_REACTORS
330
C
102
}
330
C
100
AcDbDictionary
281
     1
  3
A3_PDF
350
1DD4
  0
ACDBDICTIONARYWDFLT
  5
E
102
{ACAD_REACTORS
330
C
102
}
330
C
100
AcDbDictionary
281
     1
  3
Normal
350
F
100
AcDbDictionaryWithDefault
340
F
  0
DICTIONARY
  5
B6
102
{ACAD_REACTORS
330
C
102
}
330
C
100
AcDbDictionary
281
     1
  3
A0
350
B7
  3
A1
350
124
  3
A2
350
125
  3
A3
350
126
  3
A4
350
127
  3
A5
350
128
  3
A6
350
129
  3
A7
350
12A
  3
A8
350
12B
  3
A9
350
12C
  3
B0
350
12D
  3
B1
350
12E
  3
B2
350
12F
  3
B3
350
130
  3
B4
350
131
  3
B5
350
132
  3
B6
350
133
  3
B7
350
134
  3
B8
350
135
  3
B9
350
136
  3
C0
350
137
  3
C1
350
138
  3
C2
350
139
  3
C3
350
13A
  3
C4
350
13B
  3
C5
350
13C
  3
C6
350
13D
  3
C7
350
13E
  3
C8
350
13F
  3
C9
350
140
  3
D0
350
141
  3
D1
350
142
  3
D2
350
143
  0
DICTIONARY
  5
1A75B
102
{ACAD_REACTORS
330
C
102
}
330
C
100
AcDbDictionary
281
     1
  3
Imperial24
350
1A75D
  0
DICTIONARY
  5
86
102
{ACAD_REACTORS
330
C
102
}
330
C
100
AcDbDictionary
281
     1
  3
Standard
350
87
  0
DICTIONARY
  5
99
102
{ACAD_REACTORS
330
C
102
}
330
C
100
AcDbDictionary
281
     1
  3
2dWireframe
350
9F
  3
3D Hidden
350
A1
  3
3dWireframe
350
A0
  3
Basic
350
9E
  3
Brighten
350
A5
  3
ColorChange
350
A9
  3
Conceptual
350
A2
  3
Dim
350
A4
  3
EdgeColorOff
350
1A75A
  3
Facepattern
350
A8
  3
Flat
350
9A
  3
FlatWithEdges
350
9B
  3
Gouraud
350
9C
  3
GouraudWithEdges
350
9D
  3
Hidden
350
1A752
  3
JitterOff
350
1A758
  3
Linepattern
350
A7
  3
OverhangOff
350
1A759
  3
Realistic
350
A3
  3
Shaded
350
1A757
  3
Shaded with edges
350
1A756
  3
Shades of Gray
350
1A753
  3
Sketchy
350
1A754
  3
Thicken
350
A6
  3
Wireframe
350
1A751
  3
X-Ray
350
1A755
  0
XRECORD
  5
16F0
102
{ACAD_REACTORS
330
C
102
}
330
C
100
AcDbXrecord
280
     1
 90
   990106
  3

 60
     0
 61
     0
 62
     2
 63
     2
 64
     0
 65
     1
 66
     0
 67
     4
 68
     1
 69
     0
 70
     0
 71
     0
 72
     0
 40
0.0
170
     2
340
0
  0
XRECORD
  5
1AA44
102
{ACAD_REACTORS
330
C
102
}
330
C
100
AcDbXrecord
280
     1
 90
        1
330
87
330
1E6C
330
1E77
330
19A4D
330
19A57
330
19BED
330
1A398
330
1A39D
330
1A664
330
1A66A
330
1A89E
  0
DICTIONARY
  5
66
102
{ACAD_REACTORS
330
C
102
}
330
C
100
AcDbDictionary
281
     1
  3
CANNOSCALE
350
F0
  3
CMLEADERSTYLE
350
EF
  3
CTABLESTYLE
350
89
  3
CVIEWDETAILSTYLE
350
1A7EE
  3
CVIEWSECTIONSTYLE
350
1A7EF
  3
DIMASSOC
350
67
  3
HIDETEXT
350
6B
  3
LAYEREVAL
350
14D
  3
LAYERNOTIFY
350
14E
  3
LIGHTINGUNITS
350
11BB9
  3
MSLTSCALE
350
11BB8
  0
DICTIONARY
  5
1AA4C
102
{ACAD_REACTORS
330
C
102
}
330
C
100
AcDbDictionary
281
     1
  3
AcDsRecords
350
1AA4E
  3
AcDsSchemas
350
1AA4D
1001
ACAD
1070
     2
  0
DICTIONARY
  5
17F
102
{ACAD_REACTORS
330
C
102
}
330
C
100
AcDbDictionary
281
     1
  0
DICTIONARY
  5
1D6
102
{ACAD_REACTORS
330
1D5
102
}
330
1D5
100
AcDbDictionary
281
     1
  0
XRECORD
  5
1AA3E
102
{ACAD_REACTORS
330
1AA3D
102
}
330
1AA3D
100
AcDbXrecord
280
     1
 70
     1
340
B7
340
171
 70
    -1
  0
XRECORD
  5
1AA41
102
{ACAD_REACTORS
330
1AA40
102
}
330
1AA40
100
AcDbXrecord
280
     1
 70
     1
340
B7
340
1DCB
 70
    -1
  0
SORTENTSTABLE
  5
195
102
{ACAD_REACTORS
330
15D
102
}
330
15D
100
AcDbSortentsTable
330
1F
  0
SORTENTSTABLE
  5
19105
102
{ACAD_REACTORS
330
19104
102
}
330
19104
100
AcDbSortentsTable
330
1E4C
331
1E77
  5
1E8D
331
1E4E
  5
1E4E
331
196EB
  5
196EB
331
1E51
  5
1E6C
331
1E6C
  5
1E7C
331
1E60
  5
1E77
  0
SORTENTSTABLE
  5
1A8A2
102
{ACAD_REACTORS
330
164D
102
}
330
164D
100
AcDbSortentsTable
330
1636
  0
XRECORD
  5
1AA8A
102
{ACAD_REACTORS
330
1A894
102
}
330
1A894
100
AcDbXrecord
280
     1
 40
417025.0
  1
This drawing must be read in conjunction with all the Supercrete™ Soundfloor Design Guide
  0
XRECORD
  5
1AA43
102
{ACAD_REACTORS
330
1A89F
102
}
330
1A89F
100
AcDbXrecord
280
     1
 40
73273.0
  1
\pxqc;SOUNDFLOOR CONSTRUCTION
  0
XRECORD
  5
1E50
102
{ACAD_REACTORS
330
1E4F
102
}
330
1E4F
100
AcDbXrecord
280
     1
 90
        1
340
B7
  0
XRECORD
  5
1E53
102
{ACAD_REACTORS
330
1E52
102
}
330
1E52
100
AcDbXrecord
280
     1
 90
        1
340
B7
  0
DICTIONARY
  5
1E6E
102
{ACAD_REACTORS
330
1E6D
102
}
330
1E6D
100
AcDbDictionary
281
     1
  3
ACDB_ANNOTATIONSCALES
350
1E6F
  0
DICTIONARY
  5
1E79
102
{ACAD_REACTORS
330
1E78
102
}
330
1E78
100
AcDbDictionary
281
     1
  3
ACDB_ANNOTATIONSCALES
350
1E7A
  0
XRECORD
  5
1AA75
102
{ACAD_REACTORS
330
1A7D7
102
}
330
1A7D7
100
AcDbXrecord
280
     1
 40
162092.0
  1
Supercrete{\fScript MT Bold|b0|i1|c0|p66;™} Soundfloor
  0
DICTIONARY
  5
19A4F
102
{ACAD_REACTORS
330
19A4E
102
}
330
19A4E
100
AcDbDictionary
281
     1
  3
ACDB_ANNOTATIONSCALES
350
19A50
  0
DICTIONARY
  5
19A59
102
{ACAD_REACTORS
330
19A58
102
}
330
19A58
100
AcDbDictionary
281
     1
  3
ACDB_ANNOTATIONSCALES
350
19A5A
  0
XRECORD
  5
1AA42
102
{ACAD_REACTORS
330
1A743
102
}
330
1A743
100
AcDbXrecord
280
     1
 40
1564150.0
  1
{\fSwis721 BT|b1|i1|c0|p34;\LNOTE\P\pxt3;}This arrangement applies to Platform Floors only.\PBracing walls for Fitted Floors to comply with NZS 3604.\PLimit panel bearing stress to 1MPa
  0
DICTIONARY
  5
1A39A
102
{ACAD_REACTORS
330
1A399
102
}
330
1A399
100
AcDbDictionary
281
     1
  3
ACDB_ANNOTATIONSCALES
350
1A39B
  0
DICTIONARY
  5
1A39F
102
{ACAD_REACTORS
330
1A39E
102
}
330
1A39E
100
AcDbDictionary
281
     1
  3
ACDB_ANNOTATIONSCALES
350
1A3A0
  0
DICTIONARY
  5
1A666
102
{ACAD_REACTORS
330
1A665
102
}
330
1A665
100
AcDbDictionary
281
     1
  3
ACDB_ANNOTATIONSCALES
350
1A667
  0
DICTIONARY
  5
1A66C
102
{ACAD_REACTORS
330
1A66B
102
}
330
1A66B
100
AcDbDictionary
281
     1
  3
ACDB_ANNOTATIONSCALES
350
1A66D
  0
XRECORD
  5
1AA8C
102
{ACAD_REACTORS
330
1A988
102
}
330
1A988
100
AcDbXrecord
280
     1
 40
274088.0
  1
{\fTahoma|b1|i0|c0|p34;\C7;Copyright © Superbuild International Ltd 2013}
  0
XRECORD
  5
1AA46
102
{ACAD_REACTORS
330
1AA45
102
}
330
1AA45
100
AcDbXrecord
280
     1
 40
10.0
  0
ACDBDETAILVIEWSTYLE
  5
1A75F
102
{ACAD_REACTORS
330
1A75E
102
}
330
1A75E
100
AcDbModelDocViewStyle
 70
     0
  3
Imperial24
290
     0
100
AcDbDetailViewStyle
 70
     0
 71
     0
 90
        3
 71
     1
340
11
 62
   256
 40
0.24
340
0
 62
   256
 40
0.24
300

 40
0.36
280
     3
 71
     2
340
16
 90
       25
 62
   256
 71
     3
340
11
 62
   256
 40
0.24
 90
        1
 40
0.75
 90
        1
300
%<\AcVar ViewType \f "%tc1">% %<\AcVar ViewDetailId>%\PSCALE %<\AcVar ViewScale \f "%sn">%
 71
     4
340
16
 90
       25
 62
   256
340
16
 90
       25
 62
   256
280
     0
  0
IMAGEDEF
  5
1652
102
{ACAD_REACTORS
330
1651
102
}
330
1651
100
AcDbRasterImageDef
 90
        0
  1
M:\Autocad\CAD Library\Hebel Supercrete Logo.jpg
 10
5906.0
 20
3360.0
 11
0.0846666666666667
 21
0.0846666666666667
280
     1
281
     5
  0
IMAGEDEF
  5
1653
102
{ACAD_REACTORS
330
1651
102
}
330
1651
100
AcDbRasterImageDef
 90
        0
  1
C:\Documents and Settings\Dennis\My Documents\CAD-DATA\Hebel Supercrete Logo.jpg
 10
5906.0
 20
3360.0
 11
0.0846666666666667
 21
0.0846666666666667
280
     1
281
     5
  0
IMAGEDEF
  5
1A79C
102
{ACAD_REACTORS
330
1651
330
1A8A1
102
}
330
1651
100
AcDbRasterImageDef
 90
        0
  1
M:\LOGISTICS and PRICING\logos & letter head\Graphics\Hebel Letterheads & Logos\Supercrete Hi Res.jpg
 10
1367.0
 20
308.0
 11
0.0846666666666667
 21
0.0846666666666667
280
     1
281
     5
  0
LAYOUT
  5
1E9F
102
{ACAD_XDICTIONARY
360
1EA0
102
}
102
{ACAD_REACTORS
330
1A
102
}
330
1A
100
AcDbPlotSettings
  1

  2
Adobe PDF.pc3
  4
A4
  6

 40
3.174999952316284
 41
3.174999952316284
 42
3.175003051757812
 43
3.17498779296875
 44
209.9733276367187
 45
297.0318298339844
 46
0.0
 47
0.0
 48
0.0
 49
0.0
140
0.0
141
0.0
142
1.0
143
1.0
 70
   672
 72
     1
 73
     0
 74
     5
  7
Hebel monochrome.ctb
 75
    16
147
25.4
 76
     0
 77
     2
 78
   300
148
0.0
149
0.0
100
AcDbLayout
  1
3.5.3
 70
     0
 71
     1
 10
-3.174999952316284
 20
-3.174999952316284
 11
206.7983276844024
 21
293.8568298816681
 12
0.0
 22
0.0
 32
0.0
 14
8.593067451048113
 24
8.894638247943134
 34
-0.0000000000112498
 15
198.7948892534981
 25
285.5263785488592
 35
0.0000000000002956
146
0.0
 13
0.0
 23
0.0
 33
0.0
 16
1.0
 26
0.0
 36
0.0
 17
0.0
 27
1.0
 37
0.0
 76
     0
330
1E4C
331
1E4E
1001
ACAD_PSEXT
1000
Adobe PDF.pc3
1000
Adobe PDF Converter
1000
Documents\*.pdf
1000

1070
     0
  0
LAYOUT
  5
22
102
{ACAD_REACTORS
330
1A
102
}
330
1A
100
AcDbPlotSettings
  1

  2
none_device
  4
ANSI_A_(8.50_x_11.00_Inches)
  6

 40
6.349999904632568
 41
19.04999923706055
 42
6.350006103515625
 43
19.04998779296875
 44
215.8999938964844
 45
279.3999938964844
 46
0.0
 47
0.0
 48
0.0
 49
0.0
140
0.0
141
0.0
142
1.0
143
2.584895464708373
 70
 11952
 72
     0
 73
     1
 74
     0
  7

 75
     0
147
0.3868628397755418
 76
     0
 77
     2
 78
   300
148
0.0
149
0.0
100
AcDbLayout
  1
Model
 70
     1
 71
     0
 10
0.0
 20
0.0
 11
12.0
 21
9.0
 12
0.0
 22
0.0
 32
0.0
 14
0.0
 24
0.0
 34
0.0
 15
0.0
 25
0.0
 35
0.0
146
0.0
 13
0.0
 23
0.0
 33
0.0
 16
1.0
 26
0.0
 36
0.0
 17
0.0
 27
1.0
 37
0.0
 76
     0
330
1F
331
94
  0
MATERIAL
  5
97
102
{ACAD_XDICTIONARY
360
1AA52
102
}
102
{ACAD_REACTORS
330
72
102
}
330
72
100
AcDbMaterial
  1
ByBlock
  0
MATERIAL
  5
96
102
{ACAD_XDICTIONARY
360
1AA50
102
}
102
{ACAD_REACTORS
330
72
102
}
330
72
100
AcDbMaterial
  1
ByLayer
  0
MATERIAL
  5
98
102
{ACAD_XDICTIONARY
360
110
102
}
102
{ACAD_REACTORS
330
72
102
}
330
72
100
AcDbMaterial
  1
Global
 43
0.0208000000566244
 43
0.0
 43
0.0
 43
0.0
 43
0.0
 43
0.0208000000566244
 43
0.0
 43
0.0
 43
0.0
 43
0.0
 43
1.0
 43
0.0
 43
0.0
 43
0.0
 43
0.0
 43
1.0
 49
0.0208000000566244
 49
0.0
 49
0.0
 49
0.0
 49
0.0
 49
0.0208000000566244
 49
0.0
 49
0.0
 49
0.0
 49
0.0
 49
1.0
 49
0.0
 49
0.0
 49
0.0
 49
0.0
 49
1.0
142
0.0208000000566244
142
0.0
142
0.0
142
0.0
142
0.0
142
0.0208000000566244
142
0.0
142
0.0
142
0.0
142
0.0
142
1.0
142
0.0
142
0.0
142
0.0
142
0.0
142
1.0
144
0.0208000000566244
144
0.0
144
0.0
144
0.0
144
0.0
144
0.0208000000566244
144
0.0
144
0.0
144
0.0
144
0.0
144
1.0
144
0.0
144
0.0
144
0.0
144
0.0
144
1.0
1001
ACAD
1070
    -1
1070
     3
1070
     0
1000

1071
        0
1070
     0
  0
MLEADERSTYLE
  5
D8
102
{ACAD_REACTORS
330
D7
102
}
330
D7
100
AcDbMLeaderStyle
170
     2
171
     1
172
     0
 90
        2
 40
0.0
 41
0.0
173
     1
 91
-1056964608
340
14
 92
       -2
290
     1
 42
0.09
291
     1
 43
0.36
  3
Standard
 44
0.18
300

342
11
174
     1
178
     1
175
     1
176
     0
 93
-1056964608
 45
0.18
292
     0
297
     0
 46
0.18
 94
-1056964608
 47
1.0
 49
1.0
140
1.0
293
     1
141
0.0
294
     1
177
     0
142
1.0
295
     0
296
     0
143
0.125
1001
ACAD_MLEADERVER
1070
     2
  0
MLINESTYLE
  5
18
102
{ACAD_REACTORS
330
17
102
}
330
17
100
AcDbMlineStyle
  2
STANDARD
 70
     0
  3

 62
   256
 51
90.0
 52
90.0
 71
     2
 49
0.5
 62
   256
  6
BYLAYER
 49
-0.5
 62
   256
  6
BYLAYER
  0
PLOTSETTINGS
  5
1DD4
102
{ACAD_REACTORS
330
19
102
}
330
19
100
AcDbPlotSettings
  1
A3_PDF
  2
Adobe PDF
  4
A4
  6

 40
3.174999952316284
 41
3.174999952316284
 42
3.175003051757812
 43
3.17498779296875
 44
209.9733276367187
 45
297.0318298339844
 46
0.0
 47
2.419603640926112
 48
132495.994355
 49
-42479.296146
140
140025.935292
141
-39421.803838
142
1.0
143
3.646511884082726
 70
  3764
 72
     1
 73
     0
 74
     1
  7
MyBW.ctb
 75
     0
147
0.2742346746119403
 76
     1
 77
     2
 78
   300
148
0.0453119052781403
149
60.0636080096233
1001
ACAD_PSEXT
1000
Adobe PDF
1000
Adobe PDF Converter
1000
Documents\*.pdf
1000

1070
     0
  0
ACDBPLACEHOLDER
  5
F
102
{ACAD_REACTORS
330
E
102
}
330
E
  0
SCALE
  5
B7
102
{ACAD_REACTORS
330
B6
102
}
330
B6
100
AcDbScale
 70
     0
300
1:1
140
1.0
141
1.0
290
     1
  0
SCALE
  5
124
102
{ACAD_REACTORS
330
B6
102
}
330
B6
100
AcDbScale
 70
     0
300
1:2
140
1.0
141
2.0
290
     0
  0
SCALE
  5
125
102
{ACAD_REACTORS
330
B6
102
}
330
B6
100
AcDbScale
 70
     0
300
1:4
140
1.0
141
4.0
290
     0
  0
SCALE
  5
126
102
{ACAD_REACTORS
330
B6
102
}
330
B6
100
AcDbScale
 70
     0
300
1:5
140
1.0
141
5.0
290
     0
  0
SCALE
  5
127
102
{ACAD_REACTORS
330
B6
102
}
330
B6
100
AcDbScale
 70
     0
300
1:8
140
1.0
141
8.0
290
     0
  0
SCALE
  5
128
102
{ACAD_REACTORS
330
B6
102
}
330
B6
100
AcDbScale
 70
     0
300
1:10
140
1.0
141
10.0
290
     0
  0
SCALE
  5
129
102
{ACAD_REACTORS
330
B6
102
}
330
B6
100
AcDbScale
 70
     0
300
1:16
140
1.0
141
16.0
290
     0
  0
SCALE
  5
12A
102
{ACAD_REACTORS
330
B6
102
}
330
B6
100
AcDbScale
 70
     0
300
1:20
140
1.0
141
20.0
290
     0
  0
SCALE
  5
12B
102
{ACAD_REACTORS
330
B6
102
}
330
B6
100
AcDbScale
 70
     0
300
1:30
140
1.0
141
30.0
290
     0
  0
SCALE
  5
12C
102
{ACAD_REACTORS
330
B6
102
}
330
B6
100
AcDbScale
 70
     0
300
1:40
140
1.0
141
40.0
290
     0
  0
SCALE
  5
12D
102
{ACAD_REACTORS
330
B6
102
}
330
B6
100
AcDbScale
 70
     0
300
1:50
140
1.0
141
50.0
290
     0
  0
SCALE
  5
12E
102
{ACAD_REACTORS
330
B6
102
}
330
B6
100
AcDbScale
 70
     0
300
1:100
140
1.0
141
100.0
290
     0
  0
SCALE
  5
12F
102
{ACAD_REACTORS
330
B6
102
}
330
B6
100
AcDbScale
 70
     0
300
2:1
140
2.0
141
1.0
290
     0
  0
SCALE
  5
130
102
{ACAD_REACTORS
330
B6
102
}
330
B6
100
AcDbScale
 70
     0
300
4:1
140
4.0
141
1.0
290
     0
  0
SCALE
  5
131
102
{ACAD_REACTORS
330
B6
102
}
330
B6
100
AcDbScale
 70
     0
300
8:1
140
8.0
141
1.0
290
     0
  0
SCALE
  5
132
102
{ACAD_REACTORS
330
B6
102
}
330
B6
100
AcDbScale
 70
     0
300
10:1
140
10.0
141
1.0
290
     0
  0
SCALE
  5
133
102
{ACAD_REACTORS
330
B6
102
}
330
B6
100
AcDbScale
 70
     0
300
100:1
140
100.0
141
1.0
290
     0
  0
SCALE
  5
134
102
{ACAD_REACTORS
330
B6
102
}
330
B6
100
AcDbScale
 70
     0
300
1/128" = 1'-0"
140
0.0078125
141
12.0
290
     0
  0
SCALE
  5
135
102
{ACAD_REACTORS
330
B6
102
}
330
B6
100
AcDbScale
 70
     0
300
1/64" = 1'-0"
140
0.015625
141
12.0
290
     0
  0
SCALE
  5
136
102
{ACAD_REACTORS
330
B6
102
}
330
B6
100
AcDbScale
 70
     0
300
1/32" = 1'-0"
140
0.03125
141
12.0
290
     0
  0
SCALE
  5
137
102
{ACAD_REACTORS
330
B6
102
}
330
B6
100
AcDbScale
 70
     0
300
1/16" = 1'-0"
140
0.0625
141
12.0
290
     0
  0
SCALE
  5
138
102
{ACAD_REACTORS
330
B6
102
}
330
B6
100
AcDbScale
 70
     0
300
3/32" = 1'-0"
140
0.09375
141
12.0
290
     0
  0
SCALE
  5
139
102
{ACAD_REACTORS
330
B6
102
}
330
B6
100
AcDbScale
 70
     0
300
1/8" = 1'-0"
140
0.125
141
12.0
290
     0
  0
SCALE
  5
13A
102
{ACAD_REACTORS
330
B6
102
}
330
B6
100
AcDbScale
 70
     0
300
3/16" = 1'-0"
140
0.1875
141
12.0
290
     0
  0
SCALE
  5
13B
102
{ACAD_REACTORS
330
B6
102
}
330
B6
100
AcDbScale
 70
     0
300
1/4" = 1'-0"
140
0.25
141
12.0
290
     0
  0
SCALE
  5
13C
102
{ACAD_REACTORS
330
B6
102
}
330
B6
100
AcDbScale
 70
     0
300
3/8" = 1'-0"
140
0.375
141
12.0
290
     0
  0
SCALE
  5
13D
102
{ACAD_REACTORS
330
B6
102
}
330
B6
100
AcDbScale
 70
     0
300
1/2" = 1'-0"
140
0.5
141
12.0
290
     0
  0
SCALE
  5
13E
102
{ACAD_REACTORS
330
B6
102
}
330
B6
100
AcDbScale
 70
     0
300
3/4" = 1'-0"
140
0.75
141
12.0
290
     0
  0
SCALE
  5
13F
102
{ACAD_REACTORS
330
B6
102
}
330
B6
100
AcDbScale
 70
     0
300
1" = 1'-0"
140
1.0
141
12.0
290
     0
  0
SCALE
  5
140
102
{ACAD_REACTORS
330
B6
102
}
330
B6
100
AcDbScale
 70
     0
300
1-1/2" = 1'-0"
140
1.5
141
12.0
290
     0
  0
SCALE
  5
141
102
{ACAD_REACTORS
330
B6
102
}
330
B6
100
AcDbScale
 70
     0
300
3" = 1'-0"
140
3.0
141
12.0
290
     0
  0
SCALE
  5
142
102
{ACAD_REACTORS
330
B6
102
}
330
B6
100
AcDbScale
 70
     0
300
6" = 1'-0"
140
6.0
141
12.0
290
     0
  0
SCALE
  5
143
102
{ACAD_REACTORS
330
B6
102
}
330
B6
100
AcDbScale
 70
     0
300
1'-0" = 1'-0"
140
12.0
141
12.0
290
     0
  0
ACDBSECTIONVIEWSTYLE
  5
1A75D
102
{ACAD_REACTORS
330
1A75B
102
}
330
1A75B
100
AcDbModelDocViewStyle
 70
     0
  3
Imperial24
290
     0
100
AcDbSectionViewStyle
 70
     0
 71
     0
 90
       78
 71
     1
340
11
 62
   256
 40
0.24
340
0
340
0
 62
   256
 40
0.24
300
I, O, Q, S, X, Z
 40
0.48
 90
        3
 40
0.18
 90
        1
 71
     2
340
1A75C
 90
       25
 62
   256
340
16
 90
       50
 62
   256
 40
0.24
 40
0.0
 40
0.24
 71
     3
340
11
 62
   256
 40
0.24
 90
        1
 40
0.75
 90
        1
300
%<\AcVar ViewType \f "%tc1">% %<\AcVar ViewSectionStartId>%-%<\AcVar ViewSectionEndId>%\PSCALE %<\AcVar ViewScale \f "%sn">%
 71
     4
 62
   256
 62
   257
300
ANSI31
 40
1.0
 90
        0
290
     0
290
     0
 90
        6
 40
0.0
 40
1.570796326794896
 40
0.2617993877991494
 40
1.308996938995747
 40
-0.2617993877991494
 40
1.832595714594046
  0
TABLESTYLE
  5
87
102
{ACAD_XDICTIONARY
360
104
102
}
102
{ACAD_REACTORS
330
86
102
}
330
86
100
AcDbTableStyle
  3
Standard
 70
     0
 71
     0
 40
0.06
 41
0.06
280
     0
281
     0
  7
Standard
140
0.18
170
     2
 62
     0
 63
     7
283
     0
274
    -2
284
     1
 64
     0
275
    -2
285
     1
 65
     0
276
    -2
286
     1
 66
     0
277
    -2
287
     1
 67
     0
278
    -2
288
     1
 68
     0
279
    -2
289
     1
 69
     0
  7
Standard
140
0.25
170
     5
 62
     0
 63
     7
283
     0
274
    -2
284
     1
 64
     0
275
    -2
285
     1
 65
     0
276
    -2
286
     1
 66
     0
277
    -2
287
     1
 67
     0
278
    -2
288
     1
 68
     0
279
    -2
289
     1
 69
     0
  7
Standard
140
0.18
170
     5
 62
     0
 63
     7
283
     0
274
    -2
284
     1
 64
     0
275
    -2
285
     1
 65
     0
276
    -2
286
     1
 66
     0
277
    -2
287
     1
 67
     0
278
    -2
288
     1
 68
     0
279
    -2
289
     1
 69
     0
  0
VISUALSTYLE
  5
9F
102
{ACAD_XDICTIONARY
360
1AA5F
102
}
102
{ACAD_REACTORS
330
99
102
}
330
99
100
AcDbVisualStyle
  2
2dWireframe
 70
     4
 71
     0
 72
     2
 73
     1
 90
        0
 40
-0.6
 41
-30.0
 62
     5
 63
     7
421
 16777215
 74
     1
 91
        4
 64
     7
 65
   257
 75
     1
175
     1
 42
1.0
 92
        0
 66
   257
 43
1.0
 76
     1
 77
     6
 78
     2
 67
     7
 79
     5
170
     0
171
     0
290
     0
174
     0
 93
        1
 44
0.0
173
     0
291
     0
 45
0.0
1001
ACAD
1000
AcDbSavedByObjectVersion
1070
     0
  0
VISUALSTYLE
  5
A1
102
{ACAD_XDICTIONARY
360
1AA63
102
}
102
{ACAD_REACTORS
330
99
102
}
330
99
100
AcDbVisualStyle
  2
3D Hidden
 70
     6
 71
     1
 72
     2
 73
     2
 90
        0
 40
-0.6
 41
-30.0
 62
     5
 63
     7
421
 16777215
 74
     2
 91
        2
 64
     7
 65
   257
 75
     2
175
     1
 42
40.0
 92
        0
 66
   257
 43
1.0
 76
     1
 77
     6
 78
     2
 67
     7
 79
     3
170
     0
171
     0
290
     0
174
     0
 93
        1
 44
0.0
173
     0
291
     0
 45
0.0
1001
ACAD
1000
AcDbSavedByObjectVersion
1070
     0
  0
VISUALSTYLE
  5
A0
102
{ACAD_XDICTIONARY
360
1AA61
102
}
102
{ACAD_REACTORS
330
99
102
}
330
99
100
AcDbVisualStyle
  2
3dWireframe
 70
     5
 71
     0
 72
     2
 73
     1
 90
        0
 40
-0.6
 41
-30.0
 62
     5
 63
     7
421
 16777215
 74
     1
 91
        4
 64
     7
 65
   257
 75
     1
175
     1
 42
1.0
 92
        0
 66
   257
 43
1.0
 76
     1
 77
     6
 78
     2
 67
     7
 79
     5
170
     0
171
     0
290
     0
174
     0
 93
        1
 44
0.0
173
     0
291
     0
 45
0.0
1001
ACAD
1000
AcDbSavedByObjectVersion
1070
     0
  0
VISUALSTYLE
  5
9E
102
{ACAD_XDICTIONARY
360
1AA5D
102
}
102
{ACAD_REACTORS
330
99
102
}
330
99
100
AcDbVisualStyle
  2
Basic
 70
     7
 71
     1
 72
     0
 73
     1
 90
        0
 40
-0.6
 41
-30.0
 62
     5
 63
     7
421
 16777215
 74
     0
 91
        4
 64
     7
 65
   257
 75
     1
175
     1
 42
1.0
 92
        8
 66
     7
 43
1.0
 76
     1
 77
     6
 78
     2
 67
     7
 79
     5
170
     0
171
     0
290
     0
174
     0
 93
        1
 44
0.0
173
     0
291
     1
 45
0.0
1001
ACAD
1000
AcDbSavedByObjectVersion
1070
     0
  0
VISUALSTYLE
  5
A5
102
{ACAD_XDICTIONARY
360
1AA6B
102
}
102
{ACAD_REACTORS
330
99
102
}
330
99
100
AcDbVisualStyle
  2
Brighten
 70
    12
 71
     2
 72
     2
 73
     1
 90
        0
 40
-0.6
 41
-30.0
 62
     5
 63
     7
421
 16777215
 74
     1
 91
        4
 64
     7
 65
   257
 75
     1
175
     1
 42
1.0
 92
        8
 66
     7
 43
1.0
 76
     1
 77
     6
 78
     2
 67
     7
 79
     5
170
     0
171
     0
290
     0
174
     0
 93
        1
 44
50.0
173
     0
291
     1
 45
0.0
1001
ACAD
1000
AcDbSavedByObjectVersion
1070
     0
  0
VISUALSTYLE
  5
A9
102
{ACAD_XDICTIONARY
360
1AA73
102
}
102
{ACAD_REACTORS
330
99
102
}
330
99
100
AcDbVisualStyle
  2
ColorChange
 70
    16
 71
     2
 72
     2
 73
     3
 90
        0
 40
-0.6
 41
-30.0
 62
     5
 63
     8
421
  8421504
 74
     1
 91
        4
 64
     7
 65
   257
 75
     1
175
     1
 42
1.0
 92
        8
 66
     8
424
  8421504
 43
1.0
 76
     1
 77
     6
 78
     2
 67
     7
 79
     5
170
     0
171
     0
290
     0
174
     0
 93
        1
 44
0.0
173
     0
291
     1
 45
0.0
1001
ACAD
1000
AcDbSavedByObjectVersion
1070
     0
  0
VISUALSTYLE
  5
A2
102
{ACAD_XDICTIONARY
360
1AA65
102
}
102
{ACAD_REACTORS
330
99
102
}
330
99
100
AcDbVisualStyle
  2
Conceptual
 70
     9
 71
     3
 72
     2
 73
     1
 90
        0
 40
-0.6
 41
-30.0
 62
     5
 63
     7
421
 16777215
 74
     2
 91
        2
 64
     7
 65
   257
 75
     1
175
     1
 42
40.0
 92
        8
 66
     7
 43
1.0
 76
     1
 77
     6
 78
     2
 67
     7
 79
     3
170
     0
171
     0
290
     0
174
     0
 93
        1
 44
0.0
173
     0
291
     0
 45
0.0
1001
ACAD
1000
AcDbSavedByObjectVersion
1070
     0
  0
VISUALSTYLE
  5
A4
102
{ACAD_XDICTIONARY
360
1AA69
102
}
102
{ACAD_REACTORS
330
99
102
}
330
99
100
AcDbVisualStyle
  2
Dim
 70
    11
 71
     2
 72
     2
 73
     1
 90
        0
 40
-0.6
 41
-30.0
 62
     5
 63
     7
421
 16777215
 74
     1
 91
        4
 64
     7
 65
   257
 75
     1
175
     1
 42
1.0
 92
        8
 66
     7
 43
1.0
 76
     1
 77
     6
 78
     2
 67
     7
 79
     5
170
     0
171
     0
290
     0
174
     0
 93
        1
 44
-50.0
173
     0
291
     1
 45
0.0
1001
ACAD
1000
AcDbSavedByObjectVersion
1070
     0
  0
VISUALSTYLE
  5
1A75A
102
{ACAD_XDICTIONARY
360
1AA88
102
}
102
{ACAD_REACTORS
330
99
102
}
330
99
100
AcDbVisualStyle
  2
EdgeColorOff
 70
    22
 71
     2
 72
     2
 73
     0
 90
        0
 40
-0.6
 41
-30.0
 62
     5
 63
     7
421
 16777215
 74
     1
 91
        4
 64
     7
 65
   257
 75
     1
175
     1
 42
1.0
 92
        8
 66
     7
 43
1.0
 76
     1
 77
     6
 78
     2
 67
     7
 79
     5
170
     0
171
     0
290
     0
174
     0
 93
        1
 44
0.0
173
     0
291
     1
 45
0.0
1001
ACAD
1000
AcDbSavedByObjectVersion
1070
     0
  0
VISUALSTYLE
  5
A8
102
{ACAD_XDICTIONARY
360
1AA71
102
}
102
{ACAD_REACTORS
330
99
102
}
330
99
100
AcDbVisualStyle
  2
Facepattern
 70
    15
 71
     2
 72
     2
 73
     1
 90
        0
 40
-0.6
 41
-30.0
 62
     5
 63
     7
421
 16777215
 74
     1
 91
        4
 64
     7
 65
   257
 75
     1
175
     1
 42
1.0
 92
        8
 66
     7
 43
1.0
 76
     1
 77
     6
 78
     2
 67
     7
 79
     5
170
     0
171
     0
290
     0
174
     0
 93
        1
 44
0.0
173
     0
291
     1
 45
0.0
1001
ACAD
1000
AcDbSavedByObjectVersion
1070
     0
  0
VISUALSTYLE
  5
9A
102
{ACAD_XDICTIONARY
360
1AA55
102
}
102
{ACAD_REACTORS
330
99
102
}
330
99
100
AcDbVisualStyle
  2
Flat
 70
     0
 71
     2
 72
     1
 73
     1
 90
        2
 40
-0.6
 41
30.0
 62
     5
 63
     7
421
 16777215
 74
     0
 91
        4
 64
     7
 65
   257
 75
     1
175
     1
 42
1.0
 92
        8
 66
     7
 43
1.0
 76
     1
 77
     6
 78
     2
 67
     7
 79
     5
170
     0
171
     0
290
     0
174
     0
 93
        1
 44
0.0
173
     0
291
     1
 45
0.0
1001
ACAD
1000
AcDbSavedByObjectVersion
1070
     0
  0
VISUALSTYLE
  5
9B
102
{ACAD_XDICTIONARY
360
1AA57
102
}
102
{ACAD_REACTORS
330
99
102
}
330
99
100
AcDbVisualStyle
  2
FlatWithEdges
 70
     1
 71
     2
 72
     1
 73
     1
 90
        2
 40
-0.6
 41
30.0
 62
     5
 63
     7
421
 16777215
 74
     1
 91
        4
 64
     7
 65
   257
 75
     1
175
     1
 42
1.0
 92
        0
 66
   257
 43
1.0
 76
     1
 77
     6
 78
     2
 67
     7
 79
     5
170
     0
171
     0
290
     0
174
     0
 93
        1
 44
0.0
173
     0
291
     1
 45
0.0
1001
ACAD
1000
AcDbSavedByObjectVersion
1070
     0
  0
VISUALSTYLE
  5
9C
102
{ACAD_XDICTIONARY
360
1AA59
102
}
102
{ACAD_REACTORS
330
99
102
}
330
99
100
AcDbVisualStyle
  2
Gouraud
 70
     2
 71
     2
 72
     2
 73
     1
 90
        2
 40
-0.6
 41
30.0
 62
     5
 63
     7
421
 16777215
 74
     0
 91
        4
 64
     7
 65
   257
 75
     1
175
     1
 42
1.0
 92
        0
 66
     7
 43
1.0
 76
     1
 77
     6
 78
     2
 67
     7
 79
     5
170
     0
171
     0
290
     0
174
     0
 93
        1
 44
0.0
173
     0
291
     1
 45
0.0
1001
ACAD
1000
AcDbSavedByObjectVersion
1070
     0
  0
VISUALSTYLE
  5
9D
102
{ACAD_XDICTIONARY
360
1AA5B
102
}
102
{ACAD_REACTORS
330
99
102
}
330
99
100
AcDbVisualStyle
  2
GouraudWithEdges
 70
     3
 71
     2
 72
     2
 73
     1
 90
        2
 40
-0.6
 41
30.0
 62
     5
 63
     7
421
 16777215
 74
     1
 91
        4
 64
     7
 65
   257
 75
     1
175
     1
 42
1.0
 92
        0
 66
   257
 43
1.0
 76
     1
 77
     6
 78
     2
 67
     7
 79
     5
170
     0
171
     0
290
     0
174
     0
 93
        1
 44
0.0
173
     0
291
     1
 45
0.0
1001
ACAD
1000
AcDbSavedByObjectVersion
1070
     0
  0
VISUALSTYLE
  5
1A752
102
{ACAD_XDICTIONARY
360
1AA78
102
}
102
{ACAD_REACTORS
330
99
102
}
330
99
100
AcDbVisualStyle
  2
Hidden
 70
     6
 71
     1
 72
     2
 73
     2
 90
        0
 40
-0.6
 41
-30.0
 62
     5
 63
     7
421
 16777215
 74
     2
 91
        2
 64
     7
 65
   257
 75
     2
175
     1
 42
40.0
 92
        0
 66
   257
 43
1.0
 76
     1
 77
     6
 78
     2
 67
     7
 79
     3
170
     0
171
     0
290
     0
174
     0
 93
        1
 44
0.0
173
     0
291
     0
 45
0.0
1001
ACAD
1000
AcDbSavedByObjectVersion
1070
     0
  0
VISUALSTYLE
  5
1A758
102
{ACAD_XDICTIONARY
360
1AA84
102
}
102
{ACAD_REACTORS
330
99
102
}
330
99
100
AcDbVisualStyle
  2
JitterOff
 70
    20
 71
     2
 72
     2
 73
     0
 90
        0
 40
-0.6
 41
-30.0
 62
     5
 63
     7
421
 16777215
 74
     1
 91
        4
 64
     7
 65
   257
 75
     1
175
     1
 42
1.0
 92
       10
 66
     7
 43
1.0
 76
     1
 77
     6
 78
     2
 67
     7
 79
     5
170
     0
171
     0
290
     0
174
     0
 93
        1
 44
0.0
173
     0
291
     1
 45
0.0
1001
ACAD
1000
AcDbSavedByObjectVersion
1070
     0
  0
VISUALSTYLE
  5
A7
102
{ACAD_XDICTIONARY
360
1AA6F
102
}
102
{ACAD_REACTORS
330
99
102
}
330
99
100
AcDbVisualStyle
  2
Linepattern
 70
    14
 71
     2
 72
     2
 73
     1
 90
        0
 40
-0.6
 41
-30.0
 62
     5
 63
     7
421
 16777215
 74
     1
 91
        4
 64
     7
 65
   257
 75
     7
175
     7
 42
1.0
 92
        8
 66
     7
 43
1.0
 76
     1
 77
     6
 78
     2
 67
     7
 79
     5
170
     0
171
     0
290
     0
174
     0
 93
        1
 44
0.0
173
     0
291
     1
 45
0.0
1001
ACAD
1000
AcDbSavedByObjectVersion
1070
     0
  0
VISUALSTYLE
  5
1A759
102
{ACAD_XDICTIONARY
360
1AA86
102
}
102
{ACAD_REACTORS
330
99
102
}
330
99
100
AcDbVisualStyle
  2
OverhangOff
 70
    21
 71
     2
 72
     2
 73
     0
 90
        0
 40
-0.6
 41
-30.0
 62
     5
 63
     7
421
 16777215
 74
     1
 91
        4
 64
     7
 65
   257
 75
     1
175
     1
 42
1.0
 92
        9
 66
     7
 43
1.0
 76
     1
 77
     6
 78
     2
 67
     7
 79
     5
170
     0
171
     0
290
     0
174
     0
 93
        1
 44
0.0
173
     0
291
     1
 45
0.0
1001
ACAD
1000
AcDbSavedByObjectVersion
1070
     0
  0
VISUALSTYLE
  5
A3
102
{ACAD_XDICTIONARY
360
1AA67
102
}
102
{ACAD_REACTORS
330
99
102
}
330
99
100
AcDbVisualStyle
  2
Realistic
 70
     8
 71
     2
 72
     2
 73
     1
 90
        0
 40
-0.6
 41
-30.0
 62
     5
 63
     7
421
 16777215
 74
     1
 91
        0
 64
     7
 65
   257
 75
     1
175
     1
 42
1.0
 92
        8
 66
     8
424
  7895160
 43
1.0
 76
     1
 77
     6
 78
     2
 67
     7
 79
     5
170
     0
171
     0
290
     0
174
     0
 93
       13
 44
0.0
173
     0
291
     0
 45
0.0
1001
ACAD
1000
AcDbSavedByObjectVersion
1070
     0
  0
VISUALSTYLE
  5
1A757
102
{ACAD_XDICTIONARY
360
1AA82
102
}
102
{ACAD_REACTORS
330
99
102
}
330
99
100
AcDbVisualStyle
  2
Shaded
 70
    27
 71
     2
 72
     2
 73
     1
 90
        2
 40
-0.6
 41
30.0
 62
     5
 63
     7
421
 16777215
 74
     0
 91
        4
 64
     7
 65
   257
 75
     1
175
     1
 42
1.0
 92
        8
 66
   257
 43
1.0
 76
     1
 77
     6
 78
     2
 67
     8
425
  7895160
 79
     3
170
     0
171
     0
290
     0
174
     0
 93
        5
 44
0.0
173
     0
291
     0
 45
0.0
1001
ACAD
1000
AcDbSavedByObjectVersion
1070
     0
  0
VISUALSTYLE
  5
1A756
102
{ACAD_XDICTIONARY
360
1AA80
102
}
102
{ACAD_REACTORS
330
99
102
}
330
99
100
AcDbVisualStyle
  2
Shaded with edges
 70
    26
 71
     2
 72
     2
 73
     1
 90
        2
 40
-0.6
 41
30.0
 62
     5
 63
     7
421
 16777215
 74
     1
 91
       10
 64
     7
 65
   257
 75
     2
175
     1
 42
1.0
 92
        8
 66
   257
 43
1.0
 76
     1
 77
     6
 78
     2
 67
     7
 79
     3
170
     0
171
     0
290
     0
174
     0
 93
        5
 44
0.0
173
     0
291
     0
 45
0.0
1001
ACAD
1000
AcDbSavedByObjectVersion
1070
     0
  0
VISUALSTYLE
  5
1A753
102
{ACAD_XDICTIONARY
360
1AA7A
102
}
102
{ACAD_REACTORS
330
99
102
}
330
99
100
AcDbVisualStyle
  2
Shades of Gray
 70
    23
 71
     2
 72
     2
 73
     3
 90
        0
 40
-0.6
 41
-30.0
 62
     5
 63
     7
421
 16777215
 74
     2
 91
        2
 64
     7
 65
     7
 75
     1
175
     1
 42
40.0
 92
        8
 66
     7
 43
1.0
 76
     1
 77
     6
 78
     2
 67
     7
 79
     3
170
     0
171
     0
290
     0
174
     0
 93
        1
 44
0.0
173
     0
291
     0
 45
0.0
1001
ACAD
1000
AcDbSavedByObjectVersion
1070
     0
  0
VISUALSTYLE
  5
1A754
102
{ACAD_XDICTIONARY
360
1AA7C
102
}
102
{ACAD_REACTORS
330
99
102
}
330
99
100
AcDbVisualStyle
  2
Sketchy
 70
    24
 71
     1
 72
     2
 73
     2
 90
        0
 40
-0.6
 41
-30.0
 62
     5
 63
     7
421
 16777215
 74
     2
 91
        2
 64
     7
 65
     7
 75
     1
175
     1
 42
40.0
 92
       11
 66
     7
 43
1.0
 76
     1
 77
     6
 78
     2
 67
     7
 79
     6
170
     0
171
     0
290
     0
174
     0
 93
        1
 44
0.0
173
     0
291
     0
 45
0.0
1001
ACAD
1000
AcDbSavedByObjectVersion
1070
     0
  0
VISUALSTYLE
  5
A6
102
{ACAD_XDICTIONARY
360
1AA6D
102
}
102
{ACAD_REACTORS
330
99
102
}
330
99
100
AcDbVisualStyle
  2
Thicken
 70
    13
 71
     2
 72
     2
 73
     1
 90
        0
 40
-0.6
 41
-30.0
 62
     5
 63
     7
421
 16777215
 74
     1
 91
        4
 64
     7
 65
   257
 75
     1
175
     1
 42
1.0
 92
       12
 66
     7
 43
1.0
 76
     1
 77
     6
 78
     2
 67
     7
 79
     5
170
     0
171
     0
290
     0
174
     0
 93
        1
 44
0.0
173
     0
291
     1
 45
0.0
1001
ACAD
1000
AcDbSavedByObjectVersion
1070
     0
  0
VISUALSTYLE
  5
1A751
102
{ACAD_XDICTIONARY
360
1AA76
102
}
102
{ACAD_REACTORS
330
99
102
}
330
99
100
AcDbVisualStyle
  2
Wireframe
 70
     5
 71
     0
 72
     2
 73
     0
 90
        0
 40
-0.6
 41
-30.0
 62
     5
 63
     7
421
 16777215
 74
     1
 91
        4
 64
     7
 65
   257
 75
     1
175
     1
 42
1.0
 92
        0
 66
   257
 43
1.0
 76
     1
 77
     6
 78
     2
 67
     7
 79
     3
170
     0
171
     0
290
     0
174
     0
 93
        1
 44
0.0
173
     0
291
     0
 45
0.0
1001
ACAD
1000
AcDbSavedByObjectVersion
1070
     0
  0
VISUALSTYLE
  5
1A755
102
{ACAD_XDICTIONARY
360
1AA7E
102
}
102
{ACAD_REACTORS
330
99
102
}
330
99
100
AcDbVisualStyle
  2
X-Ray
 70
    25
 71
     2
 72
     2
 73
     1
 90
        1
 40
0.5
 41
-30.0
 62
     5
 63
     7
421
 16777215
 74
     1
 91
        0
 64
     7
 65
   257
 75
     1
175
     1
 42
1.0
 92
        8
 66
     7
 43
1.0
 76
     1
 77
     6
 78
     2
 67
     7
 79
     3
170
     0
171
     0
290
     0
174
     0
 93
       13
 44
0.0
173
     0
291
     0
 45
0.0
1001
ACAD
1000
AcDbSavedByObjectVersion
1070
     0
  0
DICTIONARYVAR
  5
F0
102
{ACAD_REACTORS
330
66
102
}
330
66
100
DictionaryVariables
280
     0
  1
1:1
  0
DICTIONARYVAR
  5
EF
102
{ACAD_REACTORS
330
66
102
}
330
66
100
DictionaryVariables
280
     0
  1
STANDARD
  0
DICTIONARYVAR
  5
89
102
{ACAD_REACTORS
330
66
102
}
330
66
100
DictionaryVariables
280
     0
  1
STANDARD
  0
DICTIONARYVAR
  5
1A7EE
102
{ACAD_REACTORS
330
66
102
}
330
66
100
DictionaryVariables
280
     0
  1
Imperial24
  0
DICTIONARYVAR
  5
1A7EF
102
{ACAD_REACTORS
330
66
102
}
330
66
100
DictionaryVariables
280
     0
  1
Imperial24
  0
DICTIONARYVAR
  5
67
102
{ACAD_REACTORS
330
66
102
}
330
66
100
DictionaryVariables
280
     0
  1
2
  0
DICTIONARYVAR
  5
6B
102
{ACAD_REACTORS
330
66
102
}
330
66
100
DictionaryVariables
280
     0
  1
1
  0
DICTIONARYVAR
  5
14D
102
{ACAD_REACTORS
330
66
102
}
330
66
100
DictionaryVariables
280
     0
  1
0
  0
DICTIONARYVAR
  5
14E
102
{ACAD_REACTORS
330
66
102
}
330
66
100
DictionaryVariables
280
     0
  1
0
  0
DICTIONARYVAR
  5
11BB9
102
{ACAD_REACTORS
330
66
102
}
330
66
100
DictionaryVariables
280
     0
  1
2
  0
DICTIONARYVAR
  5
11BB8
102
{ACAD_REACTORS
330
66
102
}
330
66
100
DictionaryVariables
280
     0
  1
1
  0
DICTIONARY
  5
1AA4E
102
{ACAD_REACTORS
330
1AA4C
102
}
330
1AA4C
100
AcDbDictionary
281
     1
  0
DICTIONARY
  5
1AA4D
102
{ACAD_REACTORS
330
1AA4C
102
}
330
1AA4C
100
AcDbDictionary
281
     1
  3
8796087880688
350
1AA47
  3
8796087880704
350
1AA48
  3
8796087880720
350
1AA49
  3
8796087880736
350
1AA4A
  3
8796087880752
350
1AA4B
  0
DICTIONARY
  5
1E6F
102
{ACAD_REACTORS
330
1E6E
102
}
330
1E6E
100
AcDbDictionary
281
     1
  0
DICTIONARY
  5
1E7A
102
{ACAD_REACTORS
330
1E79
102
}
330
1E79
100
AcDbDictionary
281
     1
  0
DICTIONARY
  5
19A50
102
{ACAD_REACTORS
330
19A4F
102
}
330
19A4F
100
AcDbDictionary
281
     1
  0
DICTIONARY
  5
19A5A
102
{ACAD_REACTORS
330
19A59
102
}
330
19A59
100
AcDbDictionary
281
     1
  0
DICTIONARY
  5
1A39B
102
{ACAD_REACTORS
330
1A39A
102
}
330
1A39A
100
AcDbDictionary
281
     1
  0
DICTIONARY
  5
1A3A0
102
{ACAD_REACTORS
330
1A39F
102
}
330
1A39F
100
AcDbDictionary
281
     1
  0
DICTIONARY
  5
1A667
102
{ACAD_REACTORS
330
1A666
102
}
330
1A666
100
AcDbDictionary
281
     1
  0
DICTIONARY
  5
1A66D
102
{ACAD_REACTORS
330
1A66C
102
}
330
1A66C
100
AcDbDictionary
281
     1
  0
DICTIONARY
  5
1EA0
330
1E9F
100
AcDbDictionary
280
     1
281
     1
  3
ADSK_XREC_LAYOUTTHUMBNAIL
360
1EA1
  0
DICTIONARY
  5
1AA52
330
97
100
AcDbDictionary
280
     1
281
     1
  3
ACAD_XREC_ROUNDTRIP
360
1AA53
  0
DICTIONARY
  5
1AA50
330
96
100
AcDbDictionary
280
     1
281
     1
  3
ACAD_XREC_ROUNDTRIP
360
1AA51
  0
DICTIONARY
  5
110
330
98
100
AcDbDictionary
280
     1
281
     1
  3
ACAD_XREC_ROUNDTRIP
360
1AA54
  3
BUMPTILE
360
112
  3
DIFFUSETILE
360
111
  3
OPACITYTILE
360
113
  3
REFLECTIONTILE
360
114
  0
DICTIONARY
  5
104
330
87
100
AcDbDictionary
280
     1
281
     1
  3
ACAD_ROUNDTRIP_2008_TABLESTYLE_CELLSTYLEMAP
360
1AA3B
  3
ACAD_XREC_ROUNDTRIP
360
1AA4F
  0
DICTIONARY
  5
1AA5F
330
9F
100
AcDbDictionary
280
     1
281
     1
  3
ACAD_XREC_ROUNDTRIP
360
1AA60
  0
DICTIONARY
  5
1AA63
330
A1
100
AcDbDictionary
280
     1
281
     1
  3
ACAD_XREC_ROUNDTRIP
360
1AA64
  0
DICTIONARY
  5
1AA61
330
A0
100
AcDbDictionary
280
     1
281
     1
  3
ACAD_XREC_ROUNDTRIP
360
1AA62
  0
DICTIONARY
  5
1AA5D
330
9E
100
AcDbDictionary
280
     1
281
     1
  3
ACAD_XREC_ROUNDTRIP
360
1AA5E
  0
DICTIONARY
  5
1AA6B
330
A5
100
AcDbDictionary
280
     1
281
     1
  3
ACAD_XREC_ROUNDTRIP
360
1AA6C
  0
DICTIONARY
  5
1AA73
330
A9
100
AcDbDictionary
280
     1
281
     1
  3
ACAD_XREC_ROUNDTRIP
360
1AA74
  0
DICTIONARY
  5
1AA65
330
A2
100
AcDbDictionary
280
     1
281
     1
  3
ACAD_XREC_ROUNDTRIP
360
1AA66
  0
DICTIONARY
  5
1AA69
330
A4
100
AcDbDictionary
280
     1
281
     1
  3
ACAD_XREC_ROUNDTRIP
360
1AA6A
  0
DICTIONARY
  5
1AA88
330
1A75A
100
AcDbDictionary
280
     1
281
     1
  3
ACAD_XREC_ROUNDTRIP
360
1AA89
  0
DICTIONARY
  5
1AA71
330
A8
100
AcDbDictionary
280
     1
281
     1
  3
ACAD_XREC_ROUNDTRIP
360
1AA72
  0
DICTIONARY
  5
1AA55
330
9A
100
AcDbDictionary
280
     1
281
     1
  3
ACAD_XREC_ROUNDTRIP
360
1AA56
  0
DICTIONARY
  5
1AA57
330
9B
100
AcDbDictionary
280
     1
281
     1
  3
ACAD_XREC_ROUNDTRIP
360
1AA58
  0
DICTIONARY
  5
1AA59
330
9C
100
AcDbDictionary
280
     1
281
     1
  3
ACAD_XREC_ROUNDTRIP
360
1AA5A
  0
DICTIONARY
  5
1AA5B
330
9D
100
AcDbDictionary
280
     1
281
     1
  3
ACAD_XREC_ROUNDTRIP
360
1AA5C
  0
DICTIONARY
  5
1AA78
330
1A752
100
AcDbDictionary
280
     1
281
     1
  3
ACAD_XREC_ROUNDTRIP
360
1AA79
  0
DICTIONARY
  5
1AA84
330
1A758
100
AcDbDictionary
280
     1
281
     1
  3
ACAD_XREC_ROUNDTRIP
360
1AA85
  0
DICTIONARY
  5
1AA6F
330
A7
100
AcDbDictionary
280
     1
281
     1
  3
ACAD_XREC_ROUNDTRIP
360
1AA70
  0
DICTIONARY
  5
1AA86
330
1A759
100
AcDbDictionary
280
     1
281
     1
  3
ACAD_XREC_ROUNDTRIP
360
1AA87
  0
DICTIONARY
  5
1AA67
330
A3
100
AcDbDictionary
280
     1
281
     1
  3
ACAD_XREC_ROUNDTRIP
360
1AA68
  0
DICTIONARY
  5
1AA82
330
1A757
100
AcDbDictionary
280
     1
281
     1
  3
ACAD_XREC_ROUNDTRIP
360
1AA83
  0
DICTIONARY
  5
1AA80
330
1A756
100
AcDbDictionary
280
     1
281
     1
  3
ACAD_XREC_ROUNDTRIP
360
1AA81
  0
DICTIONARY
  5
1AA7A
330
1A753
100
AcDbDictionary
280
     1
281
     1
  3
ACAD_XREC_ROUNDTRIP
360
1AA7B
  0
DICTIONARY
  5
1AA7C
330
1A754
100
AcDbDictionary
280
     1
281
     1
  3
ACAD_XREC_ROUNDTRIP
360
1AA7D
  0
DICTIONARY
  5
1AA6D
330
A6
100
AcDbDictionary
280
     1
281
     1
  3
ACAD_XREC_ROUNDTRIP
360
1AA6E
  0
DICTIONARY
  5
1AA76
330
1A751
100
AcDbDictionary
280
     1
281
     1
  3
ACAD_XREC_ROUNDTRIP
360
1AA77
  0
DICTIONARY
  5
1AA7E
330
1A755
100
AcDbDictionary
280
     1
281
     1
  3
ACAD_XREC_ROUNDTRIP
360
1AA7F
  0
XRECORD
  5
1AA47
102
{ACAD_REACTORS
330
1AA4D
102
}
330
1AA4D
100
AcDbXrecord
280
     1
  1
AcDb_Thumbnail_Schema
102
{ATTRRECORD
341
1AA48
  2
AcDbDs::TreatedAsObjectData
280
     1
291
     1
102
ATTRRECORD}
102
{ATTRRECORD
341
1AA49
  2
AcDbDs::Legacy
280
     1
291
     1
102
ATTRRECORD}
  2
AcDbDs::ID
280
    10
 91
        8
102
{ATTRRECORD
341
1AA4A
  2
AcDs:Indexable
280
     1
291
     1
102
ATTRRECORD}
102
{ATTRRECORD
341
1AA4B
  2
AcDbDs::HandleAttribute
280
     7
282
     1
102
ATTRRECORD}
  2
Thumbnail_Data
280
    15
 91
        0
  0
XRECORD
  5
1AA48
102
{ACAD_REACTORS
330
1AA4D
102
}
330
1AA4D
100
AcDbXrecord
280
     1
  1
AcDbDs::TreatedAsObjectDataSchema
  2
AcDbDs::TreatedAsObjectData
280
     1
 91
        0
  0
XRECORD
  5
1AA49
102
{ACAD_REACTORS
330
1AA4D
102
}
330
1AA4D
100
AcDbXrecord
280
     1
  1
AcDbDs::LegacySchema
  2
AcDbDs::Legacy
280
     1
 91
        0
  0
XRECORD
  5
1AA4A
102
{ACAD_REACTORS
330
1AA4D
102
}
330
1AA4D
100
AcDbXrecord
280
     1
  1
AcDbDs::IndexedPropertySchema
  2
AcDs:Indexable
280
     1
 91
        0
  0
XRECORD
  5
1AA4B
102
{ACAD_REACTORS
330
1AA4D
102
}
330
1AA4D
100
AcDbXrecord
280
     1
  1
AcDbDs::HandleAttributeSchema
  2
AcDbDs::HandleAttribute
280
     7
 91
        1
284
     1
  0
XRECORD
  5
1EA1
102
{ACAD_REACTORS
330
1EA0
102
}
330
1EA0
100
AcDbXrecord
280
     1
310
28000000680000008C0000000100080000000000E038000001000000010000000001000000000000FFFFFF0000000052C8C8C8FF000000FF000000FF000000FF000000FF000000FF000000FF000000FF000000FF330000FF660000FF990000FFCC0000FFFF0000FF003300FF333300FF663300FF993300FFCC3300FFFF3300
310
FF006600FF336600FF666600FF996600FFCC6600FFFF6600FF009900FF339900FF669900FF999900FFCC9900FFFF9900FF00CC00FF33CC00FF66CC00FF99CC00FFCCCC00FFFFCC00FF00FF00FF33FF00FF66FF00FF99FF00FFCCFF00FFFFFF00FF000033FF330033FF660033FF990033FFCC0033FFFF0033FF003333FF3333
310
33FF663333FF993333FFCC3333FFFF3333FF006633FF336633FF666633FF996633FFCC6633FFFF6633FF009933FF339933FF669933FF999933FFCC9933FFFF9933FF00CC33FF33CC33FF66CC33FF99CC33FFCCCC33FFFFCC33FF00FF33FF33FF33FF66FF33FF99FF33FFCCFF33FFFFFF33FF000066FF330066FF660066FF99
310
0066FFCC0066FFFF0066FF003366FF333366FF663366FF993366FFCC3366FFFF3366FF006666FF336666FF666666FF996666FFCC6666FFFF6666FF009966FF339966FF669966FF999966FFCC9966FFFF9966FF00CC66FF33CC66FF66CC66FF99CC66FFCCCC66FFFFCC66FF00FF66FF33FF66FF66FF66FF99FF66FFCCFF66FF
310
FFFF66FF000099FF330099FF660099FF990099FFCC0099FFFF0099FF003399FF333399FF663399FF993399FFCC3399FFFF3399FF006699FF336699FF666699FF996699FFCC6699FFFF6699FF009999FF339999FF669999FF999999FFCC9999FFFF9999FF00CC99FF33CC99FF66CC99FF99CC99FFCCCC99FFFFCC99FF00FF99
310
FF33FF99FF66FF99FF99FF99FFCCFF99FFFFFF99FF0000CCFF3300CCFF6600CCFF9900CCFFCC00CCFFFF00CCFF0033CCFF3333CCFF6633CCFF9933CCFFCC33CCFFFF33CCFF0066CCFF3366CCFF6666CCFF9966CCFFCC66CCFFFF66CCFF0099CCFF3399CCFF6699CCFF9999CCFFCC99CCFFFF99CCFF00CCCCFF33CCCCFF66CC
310
CCFF99CCCCFFCCCCCCFFFFCCCCFF00FFCCFF33FFCCFF66FFCCFF99FFCCFFCCFFCCFFFFFFCCFF0000FFFF3300FFFF6600FFFF9900FFFFCC00FFFFFF00FFFF0033FFFF3333FFFF6633FFFF9933FFFFCC33FFFFFF33FFFF0066FFFF3366FFFF6666FFFF9966FFFFCC66FFFFFF66FFFF0099FFFF3399FFFF6699FFFF9999FFFFCC
310
99FFFFFF99FFFF00CCFFFF33CCFFFF66CCFFFF99CCFFFFCCCCFFFFFFCCFFFF00FFFFFF33FFFFFF66FFFFFF99FFFFFFCCFFFFFFFFFFFFFF000000FF0D0D0DFF1A1A1AFF282828FF353535FF434343FF505050FF5D5D5DFF6B6B6BFF787878FF868686FF939393FFA1A1A1FFAEAEAEFFBBBBBBFFC9C9C9FFD6D6D6FFE4E4E4FF
310
F1F1F1FFFFFFFFFF000000FF000000FF000000FF000000FF000000FF000000FF000000FF000000FF000000FF000000FF00000000000000000000000000000000000000000000000000000000000000000000000000000000000000000000000000000000000000000000000000000000000000000000000000000000000000
310
00000000000000000000000000000000000000000000000000000000000000000000000000000000000000000000000000000000000000000000000000000000000000000000000000000000000000000000000000000000000000000000000000000000000000000000000000000000000000000000000000000000000000
310
00000000000000000000000000000000000000000000000000000000000000000000000000000000000000000000000000000000000000000000000000000000000000000000000000000000000000000000000000000000000000000000000000000000000000000000000000000000000000000000000000000000000000
310
00000000000000000000000000000000000000000000000000000000000000000000000000000000000000000000000000000000000000000000000000000000000000000000000000000000000000000000000000000000000000000000000000000000000000000000000000000000000000000000000000000000000000
310
00000000000000000000000000000000000000000000000000000000000000000000000000000000000000000000000000000000000000000000000000000000000000000000000000000000000000000000000000000000000000000000000000000000000000000000000000000000000000000000000000000000000000
310
00000000000000000000000000000000000000000000000000000000000000000000000000000000000000E2E2E2E2E2E2E2E2E2E2E2E2E2E2E2E2E2E2E2E2E2E2E2E2E2E2E2E2E2E2E2E2E2E2E2E2E2E2E2E2E2E2E2E2E2E2E2E2E2E2E2E2E2E2E2E2E2E2E2E2E2E2E2E2E2E2E2E2E2E2E2E2E2E2E2E2E2E2E2E2E2E2E2E2
310
E2E2E2E2E2E20000000000000000000000000000E2E2E2E2E2E2E2E2E2E2E2E2E2E2E2E2E2E2E2E2E2E2E2E2E2E2E2E2E2E2E2E2E2E2E2E2E2E2E2E2E2E2E2E2E2E2E2E2E2E2E2E2E2E2E2E2E2E2E2E2E2E2E2E2E2E2E2E2E2E2E2E2E2E2E2E2E2E2E2E2E2E2E2E2E2E2E2E2E2E20000000000000000000000000000E2E200
310
000000000000000000000000000000000000000000000000E2E20000E2E2E2E2E2E2E2E2E2E2E2E2E2E2E2E2E2E2E2E2E2E2E2E2E2E2E2E2E2E2E2E2E2E2E2E2E2E2E2E2E2E2E2E2E2E2E2E2E2E2E2E20000000000E2E20000000000000000000000000000E2E2000000000000000000000000000000000000000000000000
310
00E2E2E2E2E2E2E2E2E2E2E2E2E2E2E2E2E2E2E2E2E2E2E2E2E2E2E2E2E2E2E2E2E2E2E2E2E2E2E2E2E2E2E2E2E2E2E2E2E2E2E2E2E2E2E2E2E2E2E2E2E2E2E20000000000000000000000000000E2E2000000E2E2E2E2E2E2E2E2E2E2E2E2E2E2E2E2E20000000000E2E2E2E2E2E2E2E2E2E2E2E2E2E2E2E2E2E2E2E2E2E2
310
E2E2E2E2E2E2E2E2E2E2E2E2E2E2E2E2E2E2E2E2E2E2E2E2E2E2E2E2E2E2E2E2E2E2E2E2E2E2E2E2E20000000000000000000000000000E2E2000000E2E2E2E2E2E2E2E2E2E2E2E2E2E2E2E2E20000000000E2E2E2E2E2E200E2E2E2E2E2E2E20000000000E2E2E2E2E2E20000E2E200000000000000000000E2E2E2E2E2E2
310
E2E20000E2E2E2E2E2E2000000000000E2E20000000000000000000000000000E2E2000000E2E2E2E2E2E2E2E2E2E2E2E2E2E2E2E2E20000000000E2E2E2E2E2E200E2E2E2E2E2E2E20000000000E2E2E2E2E2E20000E2E200000000000000000000E2E2E2E2E2E2E2E20000E2E2E2E2E2E2000000000000E2E20000000000
310
000000000000000000E2E200000000E2E2E2E2E2E2E2E2E2E2E2E2E2E200000000000000E2E20000000000000000000000000000000000E2E2000000000000000000000000000000000000E2E20000000000000000000000000000000000000000E2E20000000000000000000000000000E2E200000000E2E2E2E2E2E2E2E2
310
E2E2E2E2E2E200000000000000E2E2E2E2E2E2E2E2E2E2E2E2E2E2E2E2E2E2E2E2E2E2E2E2E2E2E2E2E2E2E2E2E2E2E2E2E2E2E2E2E2E2E2E2E2E2E2E2E2E2E2E2E2E2E2E2E2E2E2E2E2E2E20000000000000000000000000000E2E2E2E2E2E2E2E2E2E2E2E2E2E2E2E2E2E2E2E2E2E2E2E2E2E2E2E2E2E2E2E2E2E2E2E2E2
310
E2E2E2E2E2E2E2E2E2E2E2E2E2E2E2E2E2E2E2E2E2E2E2E2E2E2E2E2E2E2E2E2E2E2E2E2E2E2E2E2E2E2E2E2E2E2E2E2E2E2E2E2E20000000000000000000000000000E2C49BC59AC5C4009BC5BFA0C5BFA0BFA1BFA0C5A0BFA0BFC5C59AE2E2E2E2E2E2E2E2E2E2E2E2E2E2E2E2E2E2E2E2E2E2E2E2E2E2E2E2E2E2E2E2E2
310
E2E2E2E2E2E2E2E2E2E2E2E2E2E2E2E2E2E2E2E2E2E2E20000000000E2E20000000000000000000000000000E200BE00009B00F40000A0BF00F49BCB0000F4BFF4BF00009A009BE2E2000000000000000000000000000000000000000000000000000000000000000000000000000000000000000000000000000000000000
310
0000000000E2E20000000000000000000000000000E29BF40000BE0000C5F400F40000C5F49BC400C5F40000F4C5F400E2E2000000000000000000E2E2E2E2E2E2E2E2E2E2E2E2E2E2E2E2E2E2E2E2E2E2E2E2E2E2E2E200000000000000000000000000000000000000000000E2E20000000000000000000000000000E200
310
A1BF00A10000F4F4C5000000F4C5000000F4C5F4C50000BFF4E2E2E2E2E2E20000000000E2E2E2E2E2E2E2E2E2E2E2E2E2E2E2E2E2E2E2E2E2E2E2E2E2E2E2E200000000000000000000000000000000000000000000E2E20000000000000000000000000000E2F40000A0BFC49BC59AC59AC59BC49BC59AC59AC59BC49BC5
310
9AC5E2E2E2E2E2E20000000000E2E2E2E2E2E2E2E2E2E2E2E2E2E2E2E2E2E2E2E2E2E2E2E2E2E2E2E200000000000000000000000000000000000000000000E2E20000000000000000000000000000E2BEA1BFC49BC5BEC5A0BFC5C49BC5BEC5A0BFC5C49BC5BEC5A0BFE2E200000000000000000000000000000000000000
310
00000000000000000000000000000000000000000000000000000000000000000000000000000000E2E20000000000000000000000000000E2E2E2E2E2E2E2E2E2E2E2E2E2E2E2E2E2E2E2E2E2E2E2E2E2E2E2E2E2E2E2E2E2E2E2E2E2E2E2E2E2E2E2E2E2E2E2E2E2E2E2E2E2E2E2E2E2E2E2E2E2E2E2E2E2E2E2E2E2E2E2
310
E2E2E2E2E2E2E2E2E2E2E2E2E2E2E2E2E2E2E20000000000000000000000000000E2E2E2E2E2E2E2E2E2E2E2E2E2E2E2E2E2E2E2E2E2E2E2E2E2E2E2E2E2E2E2E2E2E2E2E2E2E2E2E2E2E2E2E2E2E2E2E2E2E2E2E2E2E2E2E2E2E2E2E2E2E2E2E2E2E2E2E2E2E2E2E2E2E2E2E2E2E2E2E2E2E2E2E2E2E2E2E2E2E200000000
310
00000000000000000000E2E20000000000000000000000000000000000000000000000000000000000000000000000000000000000000000000000000000000000000000000000000000000000000000000000000000000000000000000000000000E2E20000000000000000000000000000E2E20000000000000000000000
310
000000000000000000000000000000000000000000000000000000000000000000000000000000000000000000000000000000000000000000000000000000000000000000000000000000E2E20000000000000000000000000000E2E200000000000000000000000000000000000000000000000000000000000000000000
310
00000000000000000000000000000000000000000000000000000000000000000000000000000000000000000000000000000000E2E20000000000000000000000000000E2E2000000000000000000000000000000000000000000000000000000000000000000000000000000000000000000000000000000000000000000
310
0000000000000000000000000000000000000000000000000000000000E2E20000000000000000000000000000E2E20000000000000000000000000000000000000000000000000000000000000000000000000000000000000000000000000000000000000000000000000000000000000000000000000000000000000000
310
000000000000E2E20000000000000000000000000000E2E20000000000000000000000000000000000000000000000000000000000000000000000000000000000000000000000000000000000000000000000000000000000000000000000000000000000000000000000000000E2E20000000000000000000000000000E2
310
E2000000E2E2E2E2E2E2E2E2E2E2E2E2E2E2E2E2E2E2E2E2E2E2E2E20000000000000000000000000000000000000000000000000000000000000000000000000000000000000000000000000000000000000000000000E2E20000000000000000000000000000E2E2000000E2E2E2E2E2E2E2E2E2E2E2E2E2E2E2E2E2E2E2
310
E2E2E2E2E20000000000000000000000000000000000000000000000000000000000000000000000000000000000000000000000000000000000000000000000E2E20000000000000000000000000000E2E2000000E2E2E2E2E2E2E20000000000000000000000000000000000000000000000000000000000000000000000
310
0000000000000000000000000000000000000000000000000000000000000000000000000000000000E2E20000000000000000000000000000E2E2000000E2E2E2E2E2E2E200000000000000000000000000000000000000000000000000000000000000000000000000000000000000000000000000000000000000000000
310
000000000000000000000000000000000000E2E20000000000000000000000000000E2E2000000E2E2E2E2E2E2E2E2E2E2E2E2E2E2E2E2E2E2E2E2E2E2E2E2E2E2E2E2E2E2E2E2000000000000000000000000000000000000000000000000000000000000000000000000000000000000000000000000000000E2E2000000
310
0000000000000000000000E2E2000000E2E2E2E2E2E2E2E2E2E2E2E2E2E2E2E2E2E2E2E2E2E2E2E2E2E2E2E2E2E2E2E2000000000000000000000000000000000000000000000000000000000000000000000000000000000000000000000000000000E2E20000000000000000000000000000E2E2000000E2E2E2E2E2E2E2
310
E2E2E2E2E2E2E2E2E2E2E2E2E2E2E2E2E2E2E2E2E2E2E2E2E2E2E200000000000000000000000000000000000000000000000000000000000000000000000000000000000000000000000000E2E20000000000000000000000000000E2E2000000E2E2E2E2E2E2E2E2E2E2E2E2E2E2E2E2E2E2E2E2E2E2E2E2E2E2E2E2E2E2
310
E2E2E2E200000000000000000000000000000000000000000000000000000000000000000000000000000000000000000000000000E2E20000000000000000000000000000E2E2000000E2E2E2E2E2000000000000000000000000000000000000000000000000000000000000000000000000000000000000000000000000
310
000000000000000000000000000000000000000000000000000000000000E2E20000000000000000000000000000E2E2000000E2E2E2E2000000000000000000000000000000000000000000000000000000000000000000000000000000000000000000000000000000000000000000000000000000000000000000000000
310
00000000000000E2E20000000000000000000000000000E2E20000000000000000000000000000000000000000000000000000000000000000000000000000000000000000000000000000000000000000000000000000000000000000000000000000000000000000000000000000E2E20000000000000000000000000000
310
E2E20000000000000000000000000000000000000000000000000000000000000000000000000000000000000000000000000000000000000000000000000000000000000000000000000000000000000000000000000000E2E20000000000000000000000000000E2E2000000000000000000000000000000000000000000
310
0000000000000000000000000000000000000000000000000000000000000000000000000000000000000000000000000000000000000000000000000000000000E2E20000000000000000000000000000E2E2C3C3C3C3C3C3C3C3C3C3C3C3C3C3C3C3C3C3C3C3C3C3C3C3C3C3C3C3C3C3C3C3C3C3C3C3C3C3C3C3C3C3C3C3
310
C3C3C3C3C3C3C3C3C3C3C3C3C3C3C3C3C3C3C3C3C3C3C3C3C3C3C3C3C3C3C3C3C3C3C3C3C3C3C3C3C3C3E2E20000000000000000000000000000E2E200000000000000000000000000000000000000000000000000000000000000000000000000000000000000000000000000000000000000000000000000000000000000
310
00000000000000000000000000000000000000E2E20000000000000000000000000000E2E20000000000000000000000000000000000000000000000000000000000000000000000000000000000000000000000000000000000000000000000000000000000000000000000000000000000000000000000000000E2E20000
310
000000000000000000000000E2E20000000000000000000000000000000000000000000000000000000000000000000000000000000000000000000000000000000000000000000000000000000000000000000000000000000000000000000000000000E2E20000000000000000000000000000E2E2000000000000000000
310
0000000000000000000000000000000000000000000000000000000000000000000000000000000000000000000000000000000000000000000000000000000000000000000000000000000000E2E20000000000000000000000000000E2E20000000000000000000000000000000000000000000000000000000000000000
310
000000000000000000000000000000000000000000000000000000000000000000000000000000000000000000000000000000000000E2E20000000000000000000000000000E2E200000000000000000000000000000000000000000000000000000000000000000000000000000000000000000000000000000000000000
310
00000000000000000000000000000000000000000000000000000000000000E2E20000000000000000000000000000E2E2000000000000000000000000000000000000000000000000000000000000000000000000000000000000000000000000000000000000000000000000000000000000000000000000000000000000
310
0000000000000000E2E20000000000000000000000000000E2E20000000000000000000000000000000000000000000000000000000000000000000000000000000000000000000000000000000000000000000000000000000000000000000000000000000000000000000000000000E2E200000000000000000000000000
310
00E2E20000000000000000000000000000000000000000000000000000000000000000000000000000000000000000000000000000000000000000000000000000000000000000000000000000000000000000000000000000E2E20000000000000000000000000000E2E20000000000000000000000000000000000000000
310
000000000000000000000000000000000000000000000000000000000000000000000000000000000000000000000000000000000000000000000000000000000000E2E20000000000000000000000000000E2E200000000000000000000000000000000000000000000000000000000000000000000000000000000000000
310
00000000000000000000000000000000000000000000000000000000000000000000000000000000000000E2E20000000000000000000000000000E2E2000000000000000000000000000000000000000000000000000000000000000000000000000000000000000000000000000000000000000000000000000000000000
310
0000000000000000000000000000000000000000E2E20000000000000000000000000000E2E20000000000000000000000000000000000000000000000000000000000000000000000000000000000000000000000000000000000000000000000000000000000000000000000000000000000000000000000000000E2E200
310
00000000000000000000000000E2E20000000000000000000000000000000000000000000000000000000000000000000000000000000000000000000000000000000000000000000000000000000000000000000000000000000000000000000000000000E2E20000000000000000000000000000E2E20000000000000000
310
000000000000000000000000000000000000000000000000000000000000000000000000000000000000000000000000000000000000000000000000000000000000000000000000000000000000E2E20000000000000000000000000000E2E200000000000000000000000000000000000000000000000000000000000000
310
00000000000000000000000000000000000000000000000000000000000000000000000000000000000000000000000000000000000000E2E20000000000000000000000000000E2E2000000000000000000000000000000000000000000000000000000000000000000000000000000000000000000000000000000000000
310
0000000000000000000000000000000000000000000000000000000000000000E2E20000000000000000000000000000E2E20000000000000000000000000000000000000000000000000000000000000000000000000000000000000000000000000000000000000000000000000000000000000000000000000000000000
310
000000000000000000E2E20000000000000000000000000000E2E20000000000000000000000000000000000000000000000000000000000000000000000000000000000000000000000000000000000000000000000000000000000000000000000000000000000000000000000000000E2E2000000000000000000000000
310
0000E2E20000000000000000000000000000000000000000000000000000000000000000000000000000000000000000000000000000000000000000000000000000000000000000000000000000000000000000000000000000E2E20000000000000000000000000000E2E200000000000000000000000000000000000000
310
00000000000000000000000000000000000000000000000000000000000000000000000000000000000000000000000000000000000000000000000000000000000000E2E20000000000000000000000000000E2E2000000000000000000000000000000000000000000000000000000000000000000000000000000000000
310
0000000000000000000000000000000000000000000000000000000000000000000000000000000000000000E2E20000000000000000000000000000E2E200000000000000000000000000000000000000000000000000000000000000000000000000000000000000000000000000C3C3C3C3C30000000000000000000000
310
000000000000000000000000000000000000000000E2E20000000000000000000000000000E2E20000000000000000000000000000000000000000000000000000000000000000000000000000000000000000C384C3848400848484580000000000E2E2E2E2E2E2E2E2E2E2E2E2E20000000000000000000000000000E2E2
310
0000000000000000000000000000E2E20000000000000000000000000000000000000000000000000000000000000000000000000000000000000000588400848484840084E2E2E2E2E2E2E2E2E2E2E2E2E2E2E2E2E2E2E20000000000000000000000000000E2E20000000000000000000000000000E2E200000000000000
310
000000000000000000000000000000000000000000000000000000000000000000000000005884008484008484E2E20000000000000000000000000000000000000000000000000000000000000000E2E20000000000000000000000000000E2E2000000000000000000000000000000000000000000000000000000000000
310
000000000000000000000000000058008484840084E200580000000000000000000000000000000000000000000000000000000000000000E2E20000000000000000000000000000E2E20000000000000000000000000000000000000000000000000000000000000000000000000000000000000000580084848484E20084
310
580000000000000000000000000000000000000000000000000000000000000000E2E20000000000000000000000000000E2E200000000000000000000000000000000000000000000000000000000000000000000000000000000000000005800848400848400845800000000000000000000000000000000000000000000
310
00000000000000000000E2E20000000000000000000000000000E2E2000000000000000000000000000000000000000000000000000000000000000000000000000000000000000058008484842D840084580000000000000000000000000000000000000000000000000000000000000000E2E20000000000000000000000
310
000000E2E20000000000000000000000000000000000000000000000000000000000000000000000000000000000000000580084842D2D2D8400580000000000000000000000000000000000000000000000000000000000000000E2E20000000000000000000000000000E2E2000000000000000000000000000000000000
310
000000000000000000000000000000000000000000000000000058002D2D2D2D2D2D00580000000000000000000000000000000000000000000000000000000000000000E2E20000000000000000000000000000E2E20000000000000000000000000000000000000000000000000000000000000000000000000000000000
310
00000058582D2D2D2D2D2D58580000000000000000000000000000000000000000000000000000000000000000E2E20000000000000000000000000000E2E2000000000000000000000000000000000000000000000000000000000000000000000000000000000000000058DCDC002D2D00DCDC5800000000000000000000
310
00000000000000000000000000000000000000000000E2E20000000000000000000000000000E2E20000000000000000000000000000000000000000000000000000000000000000000000000000000000000000580000DC2D2DDC0000580000000000E2E2E2E2E2E2E2E2E2E2E2E2E2E2E2000000000000000000000000E2
310
E20000000000000000000000000000E2E200000000000000000000000000000000000000000000000000000000000000000000000000000000000000005800DCDC2D2DDCDC00580000000000E2E2E2E2E2E2E2E2E2E2E2E2E2E2E2000000000000000000000000E2E20000000000000000000000000000E2E2000000000000
310
0000000000000000000000000058585858585858585858585858585858585858585858585858585858582D2D5858DCDCC3C3C3C3C3E2E2E2E2E2E2E2E2E2E2E2E2E2C3C3C3C3C3C3C3C3000000000000E2E20000000000000000000000000000E2E200000000000000000000000000000000000000C3000000000000000000
310
000000000000000000000000000000580000002D2D000000DCE2E2E2E2E2E2E2E2E2E2E2E2E2E2E2E2E2E20000000000000000000000000000E2E20000000000000000000000000000E2E20000000000000000000000000000000000000084848400000000000000000000000000000000000000000000580000002D2D0000
310
E2E20000000000000000000000000000000000000000000000000000000000000000E2E20000000000000000000000000000E2E200000000000000000000000000000000000000C3000084848484848484848484848484848484848484848484580000002D2D00E2DC58000000000000000000000000000000000000000000
310
0000000000000000000000E2E20000000000000000000000000000E2E200000000000000000000000000000000000000C3000000000000000000000000000000000000000000000000580000DC2D2DE200DC580000000000000000000000000000000000000000000000000000000000000000E2E200000000000000000000
310
00000000E2E200000000000000000000000000000000000000C3000000000000000000000000000000000000000000000000580000DC2D2D0000DC580000000000000000000000000000000000000000000000000000000000000000E2E20000000000000000000000000000E2E20000000000000000000000000000000000
310
000084848484848484848484840000000000000000008484848400580000DC2D2D00DC00580000000000000000000000000000000000000000000000000000000000000000E2E20000000000000000000000000000E2E200000000000000000000000000000000000000C3000000E2E2E2E2E2000000000000008484848484
310
84848484580000DC2D2D00DC00580000000000000000000000000000000000000000000000000000000000000000E2E20000000000000000000000000000E2E200000000000000000000000000000000000000C3000000E2E2E2E2E2000000000000008484848484848484845800DC002D2D00E20058000000000000000000
310
0000000000000000000000000000000000000000000000E2E20000000000000000000000000000E2E20000000000000000000000000000000000000084848484E2E2E2E2E2E2E2E2E2E200000000848484848484845800DC002D2DDCE200580000000000000000000000000000000000000000000000000000000000000000
310
E2E20000000000000000000000000000E2E200000000000000000000000000000000000000C3000000E2E2E2E2E2E2E2E2E2E200000000000000000000005800DC002D2DDC00E2580000000000000000000000000000000000000000000000000000000000000000E2E20000000000000000000000000000E2E20000000000
310
000000000000000000000000000084840000E2E2E2E2E2E2E2E2000000008484848484848484845800DC002D2DDC00E2580000000000E2E2E2E2E2E2E2E2E2E2E200000000000000000000000000000000E2E20000000000000000000000000000E2E200000000000000000000000000000000000000C3008484E2E2E2E2E2
310
E2E2E20000000000000000000000000058DC00002D2DDC0000E20000000000E2E2E2E2E2E2E2E2E2E2E200000000000000000000000000000000E2E20000000000000000000000000000E2E2000000000000000000000000000000000000008484848400000000000000000000000084848484848484840058DC00002D2D00
310
0000E2E2E200000000E2E2E2E2E2E2E2E2E2E2E2000000000000000000000000000000E2E20000000000000000000000000000E2E200000000000000000000000000000000000000C300000000000000000000000084848400000000000000008458DC00002D2D0000005800E2E2E2E2E2E2E2E2E2E2E2E2E2E2E2E2000000
310
000000000000000000000000E2E20000000000000000000000000000E2E2000000000000000000000000000000000000008484848484848484848484848484848484848484848484848458DC00002D2D000000580000000000000000000000000000000000000000000000000000000000000000E2E2000000000000000000
310
0000000000E2E200000000000000000000000000000000000000C3000000000000000000000000000000000000000000002D2DDC0000002D2D000000580000000000000000000000000000000000000000000000000000000000000000E2E20000000000000000000000000000E2E200000000000000000000000000000000
310
00000058585858585858585858585858585858585858585858585858DC5858582D2DE2E2E2E2D200000000000000000000000000000000000000000000000000000000000000E2E20000000000000000000000000000E2E200000000000000000000000000000000000000C3D2E2E2E2E2E2E2E2E200000000D2D2D2D2D2D2
310
D2D2D22D2DD2D2D2D22D2DD2D2D2E20000000000000000000000000000000000000000000000000000000000000000E2E20000000000000000000000000000E2E200000000000000000000000000000000000000C3ECE2E2E2E2E2E2E2E200000000ECECECECECECEC00EC2D2DECECECEC2D2DECECECE20000000000000000
310
000000000000000000000000000000000000000000000000E2E20000000000000000000000000000E2E200000000000000000000000000000000000000C3ECE2E2E2E2E2E2E2E2E2E2E200EC00ECECECECECECEC2D2DECEC00EC2D2DEC00ECE2E20000000000E2E2E2E2E2E200000000000000000000000000000000000000
310
00E2E20000000000000000000000000000E2E200000000000000000000000000000000000000C3ECE2E2E2E2E2E2E2E2E2E2E200ECECECECEC00ECECEC2D2DECECECEC2D2DECECECE2E20000000000E2E2E2E2E2E20000000000000000000000000000000000000000E2E20000000000000000000000000000E2E200000000
310
000000000000000000000000000000C3EC000000000000000000000000EC00ECECECECECECEC2D2D00ECECEC2D2DEC00ECE2E20000000000E2E2E2E2E2E20000000000000000000000000000000000000000E2E20000000000000000000000000000E2E200000000000000000000000000000000000000C3EC000000000000
310
000000000000ECECECEC00ECEC00EC2D2DECECECEC2D2DECECECE2E20000000000E2E2E2E2E2E20000000000000000000000000000000000000000E2E20000000000000000000000000000E2E200000000000000000000000000000000000000C3E2E2E2E2E2E2E2E2E2E2E2E2E2E2E2E2E2E2E2E2E2E2E2E2DC5858582D2D
310
585858E2E200000000000000000000000000000000000000000000000000000000000000E2E20000000000000000000000000000E2E2000000000000000000000000000000000000000000000000000000000000000000000000000000000000E20058DCDC002D2D00DCDC58E2000000000000000000000000000000000000
310
00000000000000000000000000E2E20000000000000000000000000000E2E200000000000000000000000000000000000000E2E2E2E2E2E2E2E2E2E2E2E2E2000000000000000000E20000580000DC2D2DDC00005800E2000000E2E2E2E2E2E2E20000000000000000000000000000000000000000E2E20000000000000000
310
000000000000E2E200000000000000000000000000000000000000E2E2E2E2E2E2E2E2E2E2E2E2E20000000000000000E20000005800DCDC2D2DDCDC005800E2000000E2E2E2E2E2E2E20000000000000000000000000000000000000000E2E20000000000000000000000000000E2E2000000000000000000000000000000
310
00000000E2E2E2E2E2E2E2E2E2E2E2E2E2E2E20000000000E20000000058DC842D2D2D2D84DC5800E2E2000000E2E2E2E2E2E2E2E2E2E2E2E20000000000000000000000000000E2E20000000000000000000000000000E2E200000000000000000000000000000000000000E2E2E2E2E2E2E2E2E2E2E2E2E2E2E200000000
310
E2E200000000580084842D2D2D8400580000E2E2E2E2E2E2E2E2E2E2E2E2E2E2E2E20000000000000000000000000000E2E20000000000000000000000000000E2E200000000000000000000000000000000000000E2E2E2E2E2E2E2E2E2E2E2E2E2E2E2E2E2E2E200000000000058008484842D8484845800000000000000
310
00000000000000000000000000000000000000000000000000E2E20000000000000000000000000000E2E200000000000000000000000000000000000000E2E2E2E2E2E2E2E2E2E2E2E2E2E2E2E2E2000000000000000058008484848484008458000000000000000000000000000000000000000000000000000000000000
310
0000E2E20000000000000000000000000000E2E20000000000000000000000000000000000000000000000000000000000000000000000000000000000000000580084840084840084580000000000000000000000000000000000000000000000000000000000000000E2E20000000000000000000000000000E2E2000000
310
0000000000000000000000000000000000000000000000000000000000000000000000000000000000580084848484840084580000000000000000000000000000000000000000000000000000000000000000E2E20000000000000000000000000000E2E20000000000000000000000000000000000000000000000000000
310
000000000000000000000000000000000000580084848400E28400580000000000000000000000000000000000000000000000000000000000000000E2E20000000000000000000000000000E2E200000000000000000000000000000000000000000000000000000000000000000000000000000000000000005884008484
310
00E2E200580000000000000000000000000000000000000000000000000000000000000000E2E20000000000000000000000000000E2E2000000000000000000000000000000000000000000000000000000000000000000000000000000000000000058840084008484E28458000000000000000000000000000000000000
310
0000000000000000000000000000E2E20000000000000000000000000000E2E20000000000000000000000000000000000000000000000000000000000000000000000000000000000000000C384C38484848484E2E20000000000000000000000000000000000000000000000000000000000000000E2E200000000000000
310
00000000000000E2E20000000000000000000000000000000000000000000000000000000000000000000000000000000000000000000000000000000000E2E200000000E2E2E2E2E2E2E2E2E2E2E2E2E20000000000000000000000000000E2E20000000000000000000000000000E2E20000000000000000000000000000
310
0000000000000000000000000000000000000000000000000000000000000000000000000000000000E2E2E2E2E2E2E2E2E2E2E2E2E2E2E2E2E20000000000000000000000000000E2E20000000000000000000000000000E2E200000000000000000000000000000000000000000000000000000000000000000000000000
310
00000000000000000000000000000000000000000000000000000000000000000000000000000000000000000000000000E2E20000000000000000000000000000E2E2C3C3C3C3C3C3C3C3C3C3C3C3C3C3C3C3C3C3C3C3C3C3C3C3C3C3C3C3C3C3C3C3C3C3C3C3C3C3C3C3C3C3C3C3C3C3C3C3C3C3C3C3C3C3C3C3C3C3C3C3
310
C3C3C3C3C3C3C3C3C3C3C3C3C3C3C3C3C3C3C3C3C3C3C3C3C3C3E2E20000000000000000000000000000E2E20000000000000000000000000000000000000000000000000000000000000000000000000000000000000000000000000000000000000000000000000000000000000000000000000000000000000000000000
310
000000E2E20000000000000000000000000000E2E20000000000000000000000000000000000000000000000000000000000000000000000000000000000000000000000000000000000000000000000000000000000000000000000000000000000000000000000000000E2E20000000000000000000000000000E2E20000
310
000000000000000000000000000000000000000000000000000000000000000000000000000000000000000000000000000000000000000000000000000000000000000000000000000000000000000000000000E2E20000000000000000000000000000E2E200000000000000000000000000000000000000000000000000
310
00000000000000000000000000000000000000000000000000000000000000000000000000000000000000000000000000000000000000000000000000E2E20000000000000000000000000000E2E2000000000000000000000000000000000000000000000000000000000000000000000000000000000000000000000000
310
0000000000000000000000000000000000000000000000000000000000000000000000000000E2E20000000000000000000000000000E2E20000000000000000000000000000000000000000000000000000000000000000000000000000000000000000000000000000000000000000000000000000000000000000000000
310
000000000000000000000000000000E2E20000000000000000000000000000E2E20000000000000000000000000000000000000000000000000000000000000000000000000000000000000000000000000000000000000000000000000000000000000000000000000000000000000000000000000000E2E2000000000000
310
0000000000000000E2E20000000000000000000000000000000000000000000000000000000000000000000000000000000000000000000000000000000000000000000000000000000000000000000000000000000000000000000000000000E2E20000000000000000000000000000E2E200000000000000000000000000
310
00000000000000000000000000000000000000000000000000000000000000000000000000000000000000000000000000000000000000000000000000000000000000000000000000E2E20000000000000000000000000000E2E2000000000000000000000000000000000000000000000000000000000000000000000000
310
0000000000000000000000000000000000000000000000000000000000000000000000000000000000000000000000000000E2E20000000000000000000000000000E2E20000000000000000000000000000000000000000000000000000000000000000000000000000000000000000000000000000000000000000000000
310
000000000000000000000000000000000000000000000000000000E2E20000000000000000000000000000E2E200000000000000000000000000000000000000000000000000000000000000000000000000000000000000000000000000000000000000000000000000000000000000000000000000000000000000000000
310
00000000E2E20000000000000000000000000000E2E20000000000000000000000000000000000000000000000000000000000000000000000000000000000000000000000000000000000000000000000000000000000000000000000000000000000000000000000000000E2E20000000000000000000000000000E2E2E2
310
E2E2E2E2E2E2E2E2E2E2E2E2E2E2E2E2E2E2E2E2E2E2E2E2E2E2E2E2E2E2E2E2E2E2E2E2E2E2E2E2E2E2E2E2E2E2E2E2E2E2E2E2E2E2E2E2E2E2E2E2E2E2E2E2E2E2E2E2E2E2E2E2E2E2E2E2E2E2E2E2E2E2E2E2E2E2E20000000000000000000000000000E2E2E2E2E2E2E2E2E2E2E2E2E2E2E2E2E2E2E2E2E2E2E2E2E2E2
310
E2E2E2E2E2E2E2E2E2E2E2E2E2E2E2E2E2E2E2E2E2E2E2E2E2E2E2E2E2E2E2E2E2E2E2E2E2E2E2E2E2E2E2E2E2E2E2E2E2E2E2E2E2E2E2E2E2E2E2E2E2E2E200000000000000000000000000000000000000000000000000000000000000000000000000000000000000000000000000000000000000000000000000000000
310
00000000000000000000000000000000000000000000000000000000000000000000000000000000000000000000000000000000000000000000000000000000000000000000000000000000000000000000000000000000000000000000000000000000000000000000000000000000000000000000000000000000000000
310
00000000000000000000000000000000000000000000000000000000000000000000000000000000000000000000000000000000000000000000000000000000000000000000000000000000000000000000000000000000000000000000000000000000000000000000000000000000000000000000000000000000000000
310
000000
  0
XRECORD
  5
1AA53
102
{ACAD_REACTORS
330
1AA52
102
}
330
1AA52
100
AcDbXrecord
280
     1
102
MATERIAL
148
0.0
149
0.0
149
0.0
 93
        0
 94
       63
282
     0
 72
     1
 77
     1
171
     1
175
     1
179
     1
273
     0
  0
XRECORD
  5
1AA51
102
{ACAD_REACTORS
330
1AA50
102
}
330
1AA50
100
AcDbXrecord
280
     1
102
MATERIAL
148
0.0
149
0.0
149
0.0
 93
        0
 94
       63
282
     0
 72
     1
 77
     1
171
     1
175
     1
179
     1
273
     0
  0
XRECORD
  5
1AA54
102
{ACAD_REACTORS
330
110
102
}
330
110
100
AcDbXrecord
280
     1
102
MATERIAL
148
0.0
149
0.0
149
0.0
 93
        0
 94
       63
282
     0
 72
     1
 77
     1
171
     1
175
     1
179
     1
273
     0
  0
XRECORD
  5
112
102
{ACAD_REACTORS
330
110
102
}
330
110
100
AcDbXrecord
280
     1
270
     1
271
     1
  0
XRECORD
  5
111
102
{ACAD_REACTORS
330
110
102
}
330
110
100
AcDbXrecord
280
     1
270
     1
271
     1
  0
XRECORD
  5
113
102
{ACAD_REACTORS
330
110
102
}
330
110
100
AcDbXrecord
280
     1
270
     1
271
     1
  0
XRECORD
  5
114
102
{ACAD_REACTORS
330
110
102
}
330
110
100
AcDbXrecord
280
     1
270
     1
271
     1
  0
CELLSTYLEMAP
  5
1AA3B
102
{ACAD_REACTORS
330
104
102
}
330
104
100
AcDbCellStyleMap
 90
        3
300
CELLSTYLE
  1
TABLEFORMAT_BEGIN
 90
        5
170
     1
 91
        0
 92
    32768
 62
   257
 93
        1
300
CONTENTFORMAT
  1
CONTENTFORMAT_BEGIN
 90
        0
 91
        0
 92
      512
 93
        0
300

 40
0.0
140
1.0
 94
        5
 62
     0
340
11
144
0.25
309
CONTENTFORMAT_END
171
     1
301
MARGIN
  1
CELLMARGIN_BEGIN
 40
0.06
 40
0.06
 40
0.06
 40
0.06
 40
0.18
 40
0.18
309
CELLMARGIN_END
 94
        6
 95
        1
302
GRIDFORMAT
  1
GRIDFORMAT_BEGIN
 90
        0
 91
        1
 62
     0
 92
       -2
340
0
 93
        0
 40
0.045
309
GRIDFORMAT_END
 95
        2
302
GRIDFORMAT
  1
GRIDFORMAT_BEGIN
 90
        0
 91
        1
 62
     0
 92
       -2
340
0
 93
        0
 40
0.045
309
GRIDFORMAT_END
 95
        4
302
GRIDFORMAT
  1
GRIDFORMAT_BEGIN
 90
        0
 91
        1
 62
     0
 92
       -2
340
0
 93
        0
 40
0.045
309
GRIDFORMAT_END
 95
        8
302
GRIDFORMAT
  1
GRIDFORMAT_BEGIN
 90
        0
 91
        1
 62
     0
 92
       -2
340
0
 93
        0
 40
0.045
309
GRIDFORMAT_END
 95
       16
302
GRIDFORMAT
  1
GRIDFORMAT_BEGIN
 90
        0
 91
        1
 62
     0
 92
       -2
340
0
 93
        0
 40
0.045
309
GRIDFORMAT_END
 95
       32
302
GRIDFORMAT
  1
GRIDFORMAT_BEGIN
 90
        0
 91
        1
 62
     0
 92
       -2
340
0
 93
        0
 40
0.045
309
GRIDFORMAT_END
309
TABLEFORMAT_END
  1
CELLSTYLE_BEGIN
 90
        1
 91
        1
300
_TITLE
309
CELLSTYLE_END
300
CELLSTYLE
  1
TABLEFORMAT_BEGIN
 90
        5
170
     1
 91
        0
 92
        0
 62
   257
 93
        1
300
CONTENTFORMAT
  1
CONTENTFORMAT_BEGIN
 90
        0
 91
        0
 92
      512
 93
        0
300

 40
0.0
140
1.0
 94
        5
 62
     0
340
11
144
0.18
309
CONTENTFORMAT_END
171
     1
301
MARGIN
  1
CELLMARGIN_BEGIN
 40
0.06
 40
0.06
 40
0.06
 40
0.06
 40
0.18
 40
0.18
309
CELLMARGIN_END
 94
        6
 95
        1
302
GRIDFORMAT
  1
GRIDFORMAT_BEGIN
 90
        0
 91
        1
 62
     0
 92
       -2
340
0
 93
        0
 40
0.045
309
GRIDFORMAT_END
 95
        2
302
GRIDFORMAT
  1
GRIDFORMAT_BEGIN
 90
        0
 91
        1
 62
     0
 92
       -2
340
0
 93
        0
 40
0.045
309
GRIDFORMAT_END
 95
        4
302
GRIDFORMAT
  1
GRIDFORMAT_BEGIN
 90
        0
 91
        1
 62
     0
 92
       -2
340
0
 93
        0
 40
0.045
309
GRIDFORMAT_END
 95
        8
302
GRIDFORMAT
  1
GRIDFORMAT_BEGIN
 90
        0
 91
        1
 62
     0
 92
       -2
340
0
 93
        0
 40
0.045
309
GRIDFORMAT_END
 95
       16
302
GRIDFORMAT
  1
GRIDFORMAT_BEGIN
 90
        0
 91
        1
 62
     0
 92
       -2
340
0
 93
        0
 40
0.045
309
GRIDFORMAT_END
 95
       32
302
GRIDFORMAT
  1
GRIDFORMAT_BEGIN
 90
        0
 91
        1
 62
     0
 92
       -2
340
0
 93
        0
 40
0.045
309
GRIDFORMAT_END
309
TABLEFORMAT_END
  1
CELLSTYLE_BEGIN
 90
        2
 91
        1
300
_HEADER
309
CELLSTYLE_END
300
CELLSTYLE
  1
TABLEFORMAT_BEGIN
 90
        5
170
     1
 91
        0
 92
        0
 62
   257
 93
        1
300
CONTENTFORMAT
  1
CONTENTFORMAT_BEGIN
 90
        0
 91
        0
 92
      512
 93
        0
300

 40
0.0
140
1.0
 94
        2
 62
     0
340
11
144
0.18
309
CONTENTFORMAT_END
171
     1
301
MARGIN
  1
CELLMARGIN_BEGIN
 40
0.06
 40
0.06
 40
0.06
 40
0.06
 40
0.18
 40
0.18
309
CELLMARGIN_END
 94
        6
 95
        1
302
GRIDFORMAT
  1
GRIDFORMAT_BEGIN
 90
        0
 91
        1
 62
     0
 92
       -2
340
0
 93
        0
 40
0.045
309
GRIDFORMAT_END
 95
        2
302
GRIDFORMAT
  1
GRIDFORMAT_BEGIN
 90
        0
 91
        1
 62
     0
 92
       -2
340
0
 93
        0
 40
0.045
309
GRIDFORMAT_END
 95
        4
302
GRIDFORMAT
  1
GRIDFORMAT_BEGIN
 90
        0
 91
        1
 62
     0
 92
       -2
340
0
 93
        0
 40
0.045
309
GRIDFORMAT_END
 95
        8
302
GRIDFORMAT
  1
GRIDFORMAT_BEGIN
 90
        0
 91
        1
 62
     0
 92
       -2
340
0
 93
        0
 40
0.045
309
GRIDFORMAT_END
 95
       16
302
GRIDFORMAT
  1
GRIDFORMAT_BEGIN
 90
        0
 91
        1
 62
     0
 92
       -2
340
0
 93
        0
 40
0.045
309
GRIDFORMAT_END
 95
       32
302
GRIDFORMAT
  1
GRIDFORMAT_BEGIN
 90
        0
 91
        1
 62
     0
 92
       -2
340
0
 93
        0
 40
0.045
309
GRIDFORMAT_END
309
TABLEFORMAT_END
  1
CELLSTYLE_BEGIN
 90
        3
 91
        2
300
_DATA
309
CELLSTYLE_END
  0
XRECORD
  5
1AA4F
102
{ACAD_REACTORS
330
104
102
}
330
104
100
AcDbXrecord
280
     1
102
ACAD_ROUNDTRIP_PRE2007_TABLESTYLE
 90
      512
 91
        0
  1

 92
      512
 93
        0
  2

 94
      512
 95
        0
  3

  0
XRECORD
  5
1AA60
102
{ACAD_REACTORS
330
1AA5F
102
}
330
1AA5F
100
AcDbXrecord
280
     1
102
RTVSPost2010Prop28
280
     1
102
RTVSPost2010PropOp28
 70
     1
102
RTVSPost2010Prop29
280
     1
102
RTVSPost2010PropOp29
 70
     1
102
RTVSPost2010Prop30
280
     0
102
RTVSPost2010PropOp30
 70
     1
102
RTVSPost2010Prop31
280
     0
102
RTVSPost2010PropOp31
 70
     1
102
RTVSPost2010Prop32
280
     0
102
RTVSPost2010PropOp32
 70
     1
102
RTVSPost2010Prop33
280
     0
102
RTVSPost2010PropOp33
 70
     1
102
RTVSPost2010Prop34
280
     0
102
RTVSPost2010PropOp34
 70
     1
102
RTVSPost2010Prop35
280
     0
102
RTVSPost2010PropOp35
 70
     1
102
RTVSPost2010Prop36
280
     0
102
RTVSPost2010PropOp36
 70
     1
102
RTVSPost2010Prop37
 90
       50
102
RTVSPost2010PropOp37
 70
     1
102
RTVSPost2010Prop38
140
0.0
102
RTVSPost2010PropOp38
 70
     1
102
RTVSPost2010Prop39
140
1.0
102
RTVSPost2010PropOp39
 70
     1
102
RTVSPost2010Prop40
 90
        0
102
RTVSPost2010PropOp40
 70
     1
102
RTVSPost2010Prop41ColorIndex
 90
       18
102
RTVSPost2010Prop41ColorRGB
 90
        0
102
RTVSPost2010PropOp41
 70
     1
102
RTVSPost2010Prop42
 90
       50
102
RTVSPost2010PropOp42
 70
     1
102
RTVSPost2010Prop43
 90
        3
102
RTVSPost2010PropOp43
 70
     1
102
RTVSPost2010Prop44ColorIndex
 90
        5
102
RTVSPost2010Prop44ColorRGB
 90
      255
102
RTVSPost2010PropOp44
 70
     1
102
RTVSPost2010Prop45
280
     0
102
RTVSPost2010PropOp45
 70
     1
102
RTVSPost2010Prop46
 90
       50
102
RTVSPost2010PropOp46
 70
     1
102
RTVSPost2010Prop47
 90
       50
102
RTVSPost2010PropOp47
 70
     1
102
RTVSPost2010Prop48
 90
       50
102
RTVSPost2010PropOp48
 70
     1
102
RTVSPost2010Prop49
280
     0
102
RTVSPost2010PropOp49
 70
     1
102
RTVSPost2010Prop50
 90
       50
102
RTVSPost2010PropOp50
 70
     1
102
RTVSPost2010Prop51ColorIndex
 90
      256
102
RTVSPost2010Prop51ColorRGB
 90
-16777216
102
RTVSPost2010PropOp51
 70
     0
102
RTVSPost2010Prop52
140
1.0
102
RTVSPost2010PropOp52
 70
     0
102
RTVSPost2010Prop53
 90
        2
102
RTVSPost2010PropOp53
 70
     1
102
RTVSPost2010Prop54
  1
strokes_ogs.tif
102
RTVSPost2010PropOp54
 70
     1
102
RTVSPost2010Prop55
280
     0
102
RTVSPost2010PropOp55
 70
     1
102
RTVSPost2010Prop56
140
1.0
102
RTVSPost2010PropOp56
 70
     1
102
RTVSPost2010Prop57
140
1.0
102
RTVSPost2010PropOp57
 70
     1
102
RTVSPropertyOp0
 70
     1
102
RTVSPropertyOp1
 70
     1
102
RTVSPropertyOp2
 70
     1
102
RTVSPropertyOp3
 70
     1
102
RTVSPropertyOp4
 70
     1
102
RTVSPropertyOp5
 70
     1
102
RTVSPropertyOp6
 70
     1
102
RTVSPropertyOp7
 70
     1
102
RTVSPropertyOp8
 70
     1
102
RTVSPropertyOp9
 70
     1
102
RTVSPropertyOp10
 70
     1
102
RTVSPropertyOp11
 70
     1
102
RTVSPropertyOp12
 70
     1
102
RTVSPropertyOp13
 70
     1
102
RTVSPropertyOp14
 70
     1
102
RTVSPropertyOp15
 70
     1
102
RTVSPropertyOp16
 70
     1
102
RTVSPropertyOp17
 70
     1
102
RTVSPropertyOp18
 70
     1
102
RTVSPropertyOp19
 70
     1
102
RTVSPropertyOp20
 70
     1
102
RTVSPropertyOp21
 70
     1
102
RTVSPropertyOp22
 70
     1
102
RTVSPropertyOp23
 70
     1
102
RTVSPropertyOp24
 70
     1
102
RTVSPropertyOp25
 70
     1
102
RTVSPropertyOp26
 70
     1
102
RTVSPropertyOp27
 70
     1
102
RTVSPropertyOp28
 70
     1
102
RTVSPropertyOp29
 70
     1
102
RTVSPropertyOp30
 70
     1
102
RTVSPropertyOp31
 70
     1
102
RTVSPropertyOp32
 70
     1
102
RTVSPropertyOp33
 70
     1
102
RTVSPropertyOp34
 70
     1
102
RTVSPropertyOp35
 70
     1
102
RTVSPropertyOp36
 70
     1
102
RTVSPropertyOp37
 70
     1
102
RTVSPropertyOp38
 70
     1
102
RTVSPropertyOp39
 70
     1
102
RTVSPropertyOp40
 70
     1
102
RTVSPropertyOp41
 70
     1
102
RTVSPropertyOp42
 70
     1
102
RTVSPropertyOp43
 70
     1
102
RTVSPropertyOp44
 70
     1
102
RTVSPropertyOp45
 70
     1
102
RTVSPropertyOp46
 70
     1
102
RTVSPropertyOp47
 70
     1
102
RTVSPropertyOp48
 70
     1
102
RTVSPropertyOp49
 70
     1
102
RTVSPropertyOp50
 70
     1
102
RTVSPropertyOp51
 70
     0
102
RTVSPropertyOp52
 70
     0
102
RTVSPropertyOp53
 70
     1
102
RTVSPropertyOp54
 70
     1
102
RTVSPropertyOp55
 70
     1
102
RTVSPropertyOp56
 70
     1
102
RTVSPropertyOp57
 70
     1
102
RTVSPropertyOp58
 70
     1
102
RTVSPropertyOp59
 70
     1
102
RTVSPropertyOp60
 70
     1
102
RTVSPropertyOp61
 70
     1
102
RTVSPropertyOp62
 70
     1
  0
XRECORD
  5
1AA64
102
{ACAD_REACTORS
330
1AA63
102
}
330
1AA63
100
AcDbXrecord
280
     1
102
RTVSPost2010Prop28
280
     0
102
RTVSPost2010PropOp28
 70
     1
102
RTVSPost2010Prop29
280
     1
102
RTVSPost2010PropOp29
 70
     1
102
RTVSPost2010Prop30
280
     1
102
RTVSPost2010PropOp30
 70
     1
102
RTVSPost2010Prop31
280
     0
102
RTVSPost2010PropOp31
 70
     1
102
RTVSPost2010Prop32
280
     0
102
RTVSPost2010PropOp32
 70
     1
102
RTVSPost2010Prop33
280
     0
102
RTVSPost2010PropOp33
 70
     1
102
RTVSPost2010Prop34
280
     0
102
RTVSPost2010PropOp34
 70
     1
102
RTVSPost2010Prop35
280
     0
102
RTVSPost2010PropOp35
 70
     1
102
RTVSPost2010Prop36
280
     0
102
RTVSPost2010PropOp36
 70
     1
102
RTVSPost2010Prop37
 90
       50
102
RTVSPost2010PropOp37
 70
     1
102
RTVSPost2010Prop38
140
0.0
102
RTVSPost2010PropOp38
 70
     1
102
RTVSPost2010Prop39
140
1.0
102
RTVSPost2010PropOp39
 70
     1
102
RTVSPost2010Prop40
 90
        0
102
RTVSPost2010PropOp40
 70
     1
102
RTVSPost2010Prop41ColorIndex
 90
       18
102
RTVSPost2010Prop41ColorRGB
 90
        0
102
RTVSPost2010PropOp41
 70
     1
102
RTVSPost2010Prop42
 90
       50
102
RTVSPost2010PropOp42
 70
     1
102
RTVSPost2010Prop43
 90
        3
102
RTVSPost2010PropOp43
 70
     1
102
RTVSPost2010Prop44ColorIndex
 90
        5
102
RTVSPost2010Prop44ColorRGB
 90
      255
102
RTVSPost2010PropOp44
 70
     1
102
RTVSPost2010Prop45
280
     0
102
RTVSPost2010PropOp45
 70
     1
102
RTVSPost2010Prop46
 90
       50
102
RTVSPost2010PropOp46
 70
     1
102
RTVSPost2010Prop47
 90
       50
102
RTVSPost2010PropOp47
 70
     1
102
RTVSPost2010Prop48
 90
       50
102
RTVSPost2010PropOp48
 70
     1
102
RTVSPost2010Prop49
280
     0
102
RTVSPost2010PropOp49
 70
     1
102
RTVSPost2010Prop50
 90
       50
102
RTVSPost2010PropOp50
 70
     1
102
RTVSPost2010Prop51ColorIndex
 90
      256
102
RTVSPost2010Prop51ColorRGB
 90
-16777216
102
RTVSPost2010PropOp51
 70
     0
102
RTVSPost2010Prop52
140
1.0
102
RTVSPost2010PropOp52
 70
     0
102
RTVSPost2010Prop53
 90
        2
102
RTVSPost2010PropOp53
 70
     1
102
RTVSPost2010Prop54
  1
strokes_ogs.tif
102
RTVSPost2010PropOp54
 70
     1
102
RTVSPost2010Prop55
280
     0
102
RTVSPost2010PropOp55
 70
     1
102
RTVSPost2010Prop56
140
1.0
102
RTVSPost2010PropOp56
 70
     1
102
RTVSPost2010Prop57
140
1.0
102
RTVSPost2010PropOp57
 70
     1
102
RTVSPropertyOp0
 70
     1
102
RTVSPropertyOp1
 70
     1
102
RTVSPropertyOp2
 70
     1
102
RTVSPropertyOp3
 70
     1
102
RTVSPropertyOp4
 70
     1
102
RTVSPropertyOp5
 70
     1
102
RTVSPropertyOp6
 70
     1
102
RTVSPropertyOp7
 70
     1
102
RTVSPropertyOp8
 70
     1
102
RTVSPropertyOp9
 70
     1
102
RTVSPropertyOp10
 70
     1
102
RTVSPropertyOp11
 70
     1
102
RTVSPropertyOp12
 70
     1
102
RTVSPropertyOp13
 70
     1
102
RTVSPropertyOp14
 70
     1
102
RTVSPropertyOp15
 70
     1
102
RTVSPropertyOp16
 70
     1
102
RTVSPropertyOp17
 70
     1
102
RTVSPropertyOp18
 70
     1
102
RTVSPropertyOp19
 70
     1
102
RTVSPropertyOp20
 70
     1
102
RTVSPropertyOp21
 70
     1
102
RTVSPropertyOp22
 70
     1
102
RTVSPropertyOp23
 70
     1
102
RTVSPropertyOp24
 70
     1
102
RTVSPropertyOp25
 70
     1
102
RTVSPropertyOp26
 70
     1
102
RTVSPropertyOp27
 70
     1
102
RTVSPropertyOp28
 70
     1
102
RTVSPropertyOp29
 70
     1
102
RTVSPropertyOp30
 70
     1
102
RTVSPropertyOp31
 70
     1
102
RTVSPropertyOp32
 70
     1
102
RTVSPropertyOp33
 70
     1
102
RTVSPropertyOp34
 70
     1
102
RTVSPropertyOp35
 70
     1
102
RTVSPropertyOp36
 70
     1
102
RTVSPropertyOp37
 70
     1
102
RTVSPropertyOp38
 70
     1
102
RTVSPropertyOp39
 70
     1
102
RTVSPropertyOp40
 70
     1
102
RTVSPropertyOp41
 70
     1
102
RTVSPropertyOp42
 70
     1
102
RTVSPropertyOp43
 70
     1
102
RTVSPropertyOp44
 70
     1
102
RTVSPropertyOp45
 70
     1
102
RTVSPropertyOp46
 70
     1
102
RTVSPropertyOp47
 70
     1
102
RTVSPropertyOp48
 70
     1
102
RTVSPropertyOp49
 70
     1
102
RTVSPropertyOp50
 70
     1
102
RTVSPropertyOp51
 70
     0
102
RTVSPropertyOp52
 70
     0
102
RTVSPropertyOp53
 70
     1
102
RTVSPropertyOp54
 70
     1
102
RTVSPropertyOp55
 70
     1
102
RTVSPropertyOp56
 70
     1
102
RTVSPropertyOp57
 70
     1
102
RTVSPropertyOp58
 70
     1
102
RTVSPropertyOp59
 70
     1
102
RTVSPropertyOp60
 70
     1
102
RTVSPropertyOp61
 70
     1
102
RTVSPropertyOp62
 70
     1
  0
XRECORD
  5
1AA62
102
{ACAD_REACTORS
330
1AA61
102
}
330
1AA61
100
AcDbXrecord
280
     1
102
RTVSPost2010Prop28
280
     0
102
RTVSPost2010PropOp28
 70
     1
102
RTVSPost2010Prop29
280
     1
102
RTVSPost2010PropOp29
 70
     1
102
RTVSPost2010Prop30
280
     1
102
RTVSPost2010PropOp30
 70
     1
102
RTVSPost2010Prop31
280
     0
102
RTVSPost2010PropOp31
 70
     1
102
RTVSPost2010Prop32
280
     0
102
RTVSPost2010PropOp32
 70
     1
102
RTVSPost2010Prop33
280
     0
102
RTVSPost2010PropOp33
 70
     1
102
RTVSPost2010Prop34
280
     0
102
RTVSPost2010PropOp34
 70
     1
102
RTVSPost2010Prop35
280
     0
102
RTVSPost2010PropOp35
 70
     1
102
RTVSPost2010Prop36
280
     0
102
RTVSPost2010PropOp36
 70
     1
102
RTVSPost2010Prop37
 90
       50
102
RTVSPost2010PropOp37
 70
     1
102
RTVSPost2010Prop38
140
0.0
102
RTVSPost2010PropOp38
 70
     1
102
RTVSPost2010Prop39
140
1.0
102
RTVSPost2010PropOp39
 70
     1
102
RTVSPost2010Prop40
 90
        0
102
RTVSPost2010PropOp40
 70
     1
102
RTVSPost2010Prop41ColorIndex
 90
       18
102
RTVSPost2010Prop41ColorRGB
 90
        0
102
RTVSPost2010PropOp41
 70
     1
102
RTVSPost2010Prop42
 90
       50
102
RTVSPost2010PropOp42
 70
     1
102
RTVSPost2010Prop43
 90
        3
102
RTVSPost2010PropOp43
 70
     1
102
RTVSPost2010Prop44ColorIndex
 90
        5
102
RTVSPost2010Prop44ColorRGB
 90
      255
102
RTVSPost2010PropOp44
 70
     1
102
RTVSPost2010Prop45
280
     0
102
RTVSPost2010PropOp45
 70
     1
102
RTVSPost2010Prop46
 90
       50
102
RTVSPost2010PropOp46
 70
     1
102
RTVSPost2010Prop47
 90
       50
102
RTVSPost2010PropOp47
 70
     1
102
RTVSPost2010Prop48
 90
       50
102
RTVSPost2010PropOp48
 70
     1
102
RTVSPost2010Prop49
280
     0
102
RTVSPost2010PropOp49
 70
     1
102
RTVSPost2010Prop50
 90
       50
102
RTVSPost2010PropOp50
 70
     1
102
RTVSPost2010Prop51ColorIndex
 90
      256
102
RTVSPost2010Prop51ColorRGB
 90
-16777216
102
RTVSPost2010PropOp51
 70
     0
102
RTVSPost2010Prop52
140
1.0
102
RTVSPost2010PropOp52
 70
     0
102
RTVSPost2010Prop53
 90
        2
102
RTVSPost2010PropOp53
 70
     1
102
RTVSPost2010Prop54
  1
strokes_ogs.tif
102
RTVSPost2010PropOp54
 70
     1
102
RTVSPost2010Prop55
280
     0
102
RTVSPost2010PropOp55
 70
     1
102
RTVSPost2010Prop56
140
1.0
102
RTVSPost2010PropOp56
 70
     1
102
RTVSPost2010Prop57
140
1.0
102
RTVSPost2010PropOp57
 70
     1
102
RTVSPropertyOp0
 70
     1
102
RTVSPropertyOp1
 70
     1
102
RTVSPropertyOp2
 70
     1
102
RTVSPropertyOp3
 70
     1
102
RTVSPropertyOp4
 70
     1
102
RTVSPropertyOp5
 70
     1
102
RTVSPropertyOp6
 70
     1
102
RTVSPropertyOp7
 70
     1
102
RTVSPropertyOp8
 70
     1
102
RTVSPropertyOp9
 70
     1
102
RTVSPropertyOp10
 70
     1
102
RTVSPropertyOp11
 70
     1
102
RTVSPropertyOp12
 70
     1
102
RTVSPropertyOp13
 70
     1
102
RTVSPropertyOp14
 70
     1
102
RTVSPropertyOp15
 70
     1
102
RTVSPropertyOp16
 70
     1
102
RTVSPropertyOp17
 70
     1
102
RTVSPropertyOp18
 70
     1
102
RTVSPropertyOp19
 70
     1
102
RTVSPropertyOp20
 70
     1
102
RTVSPropertyOp21
 70
     1
102
RTVSPropertyOp22
 70
     1
102
RTVSPropertyOp23
 70
     1
102
RTVSPropertyOp24
 70
     1
102
RTVSPropertyOp25
 70
     1
102
RTVSPropertyOp26
 70
     1
102
RTVSPropertyOp27
 70
     1
102
RTVSPropertyOp28
 70
     1
102
RTVSPropertyOp29
 70
     1
102
RTVSPropertyOp30
 70
     1
102
RTVSPropertyOp31
 70
     1
102
RTVSPropertyOp32
 70
     1
102
RTVSPropertyOp33
 70
     1
102
RTVSPropertyOp34
 70
     1
102
RTVSPropertyOp35
 70
     1
102
RTVSPropertyOp36
 70
     1
102
RTVSPropertyOp37
 70
     1
102
RTVSPropertyOp38
 70
     1
102
RTVSPropertyOp39
 70
     1
102
RTVSPropertyOp40
 70
     1
102
RTVSPropertyOp41
 70
     1
102
RTVSPropertyOp42
 70
     1
102
RTVSPropertyOp43
 70
     1
102
RTVSPropertyOp44
 70
     1
102
RTVSPropertyOp45
 70
     1
102
RTVSPropertyOp46
 70
     1
102
RTVSPropertyOp47
 70
     1
102
RTVSPropertyOp48
 70
     1
102
RTVSPropertyOp49
 70
     1
102
RTVSPropertyOp50
 70
     1
102
RTVSPropertyOp51
 70
     0
102
RTVSPropertyOp52
 70
     0
102
RTVSPropertyOp53
 70
     1
102
RTVSPropertyOp54
 70
     1
102
RTVSPropertyOp55
 70
     1
102
RTVSPropertyOp56
 70
     1
102
RTVSPropertyOp57
 70
     1
102
RTVSPropertyOp58
 70
     1
102
RTVSPropertyOp59
 70
     1
102
RTVSPropertyOp60
 70
     1
102
RTVSPropertyOp61
 70
     1
102
RTVSPropertyOp62
 70
     1
  0
XRECORD
  5
1AA5E
102
{ACAD_REACTORS
330
1AA5D
102
}
330
1AA5D
100
AcDbXrecord
280
     1
102
RTVSPost2010Prop28
280
     0
102
RTVSPost2010PropOp28
 70
     1
102
RTVSPost2010Prop29
280
     1
102
RTVSPost2010PropOp29
 70
     1
102
RTVSPost2010Prop30
280
     1
102
RTVSPost2010PropOp30
 70
     1
102
RTVSPost2010Prop31
280
     0
102
RTVSPost2010PropOp31
 70
     1
102
RTVSPost2010Prop32
280
     0
102
RTVSPost2010PropOp32
 70
     1
102
RTVSPost2010Prop33
280
     0
102
RTVSPost2010PropOp33
 70
     1
102
RTVSPost2010Prop34
280
     0
102
RTVSPost2010PropOp34
 70
     1
102
RTVSPost2010Prop35
280
     0
102
RTVSPost2010PropOp35
 70
     1
102
RTVSPost2010Prop36
280
     0
102
RTVSPost2010PropOp36
 70
     1
102
RTVSPost2010Prop37
 90
       50
102
RTVSPost2010PropOp37
 70
     1
102
RTVSPost2010Prop38
140
0.0
102
RTVSPost2010PropOp38
 70
     1
102
RTVSPost2010Prop39
140
1.0
102
RTVSPost2010PropOp39
 70
     1
102
RTVSPost2010Prop40
 90
        0
102
RTVSPost2010PropOp40
 70
     1
102
RTVSPost2010Prop41ColorIndex
 90
       18
102
RTVSPost2010Prop41ColorRGB
 90
        0
102
RTVSPost2010PropOp41
 70
     1
102
RTVSPost2010Prop42
 90
       50
102
RTVSPost2010PropOp42
 70
     1
102
RTVSPost2010Prop43
 90
        3
102
RTVSPost2010PropOp43
 70
     1
102
RTVSPost2010Prop44ColorIndex
 90
        5
102
RTVSPost2010Prop44ColorRGB
 90
      255
102
RTVSPost2010PropOp44
 70
     1
102
RTVSPost2010Prop45
280
     0
102
RTVSPost2010PropOp45
 70
     1
102
RTVSPost2010Prop46
 90
       50
102
RTVSPost2010PropOp46
 70
     1
102
RTVSPost2010Prop47
 90
       50
102
RTVSPost2010PropOp47
 70
     1
102
RTVSPost2010Prop48
 90
       50
102
RTVSPost2010PropOp48
 70
     1
102
RTVSPost2010Prop49
280
     0
102
RTVSPost2010PropOp49
 70
     1
102
RTVSPost2010Prop50
 90
       50
102
RTVSPost2010PropOp50
 70
     1
102
RTVSPost2010Prop51ColorIndex
 90
      256
102
RTVSPost2010Prop51ColorRGB
 90
-16777216
102
RTVSPost2010PropOp51
 70
     0
102
RTVSPost2010Prop52
140
1.0
102
RTVSPost2010PropOp52
 70
     0
102
RTVSPost2010Prop53
 90
        2
102
RTVSPost2010PropOp53
 70
     1
102
RTVSPost2010Prop54
  1
strokes_ogs.tif
102
RTVSPost2010PropOp54
 70
     1
102
RTVSPost2010Prop55
280
     0
102
RTVSPost2010PropOp55
 70
     1
102
RTVSPost2010Prop56
140
1.0
102
RTVSPost2010PropOp56
 70
     1
102
RTVSPost2010Prop57
140
1.0
102
RTVSPost2010PropOp57
 70
     1
102
RTVSPropertyOp0
 70
     1
102
RTVSPropertyOp1
 70
     1
102
RTVSPropertyOp2
 70
     1
102
RTVSPropertyOp3
 70
     1
102
RTVSPropertyOp4
 70
     1
102
RTVSPropertyOp5
 70
     1
102
RTVSPropertyOp6
 70
     1
102
RTVSPropertyOp7
 70
     1
102
RTVSPropertyOp8
 70
     1
102
RTVSPropertyOp9
 70
     1
102
RTVSPropertyOp10
 70
     1
102
RTVSPropertyOp11
 70
     1
102
RTVSPropertyOp12
 70
     1
102
RTVSPropertyOp13
 70
     1
102
RTVSPropertyOp14
 70
     1
102
RTVSPropertyOp15
 70
     1
102
RTVSPropertyOp16
 70
     1
102
RTVSPropertyOp17
 70
     1
102
RTVSPropertyOp18
 70
     1
102
RTVSPropertyOp19
 70
     1
102
RTVSPropertyOp20
 70
     1
102
RTVSPropertyOp21
 70
     1
102
RTVSPropertyOp22
 70
     1
102
RTVSPropertyOp23
 70
     1
102
RTVSPropertyOp24
 70
     1
102
RTVSPropertyOp25
 70
     1
102
RTVSPropertyOp26
 70
     1
102
RTVSPropertyOp27
 70
     1
102
RTVSPropertyOp28
 70
     1
102
RTVSPropertyOp29
 70
     1
102
RTVSPropertyOp30
 70
     1
102
RTVSPropertyOp31
 70
     1
102
RTVSPropertyOp32
 70
     1
102
RTVSPropertyOp33
 70
     1
102
RTVSPropertyOp34
 70
     1
102
RTVSPropertyOp35
 70
     1
102
RTVSPropertyOp36
 70
     1
102
RTVSPropertyOp37
 70
     1
102
RTVSPropertyOp38
 70
     1
102
RTVSPropertyOp39
 70
     1
102
RTVSPropertyOp40
 70
     1
102
RTVSPropertyOp41
 70
     1
102
RTVSPropertyOp42
 70
     1
102
RTVSPropertyOp43
 70
     1
102
RTVSPropertyOp44
 70
     1
102
RTVSPropertyOp45
 70
     1
102
RTVSPropertyOp46
 70
     1
102
RTVSPropertyOp47
 70
     1
102
RTVSPropertyOp48
 70
     1
102
RTVSPropertyOp49
 70
     1
102
RTVSPropertyOp50
 70
     1
102
RTVSPropertyOp51
 70
     0
102
RTVSPropertyOp52
 70
     0
102
RTVSPropertyOp53
 70
     1
102
RTVSPropertyOp54
 70
     1
102
RTVSPropertyOp55
 70
     1
102
RTVSPropertyOp56
 70
     1
102
RTVSPropertyOp57
 70
     1
102
RTVSPropertyOp58
 70
     1
102
RTVSPropertyOp59
 70
     1
102
RTVSPropertyOp60
 70
     1
102
RTVSPropertyOp61
 70
     1
102
RTVSPropertyOp62
 70
     1
  0
XRECORD
  5
1AA6C
102
{ACAD_REACTORS
330
1AA6B
102
}
330
1AA6B
100
AcDbXrecord
280
     1
102
RTVSPost2010Prop28
280
     0
102
RTVSPost2010PropOp28
 70
     1
102
RTVSPost2010Prop29
280
     1
102
RTVSPost2010PropOp29
 70
     1
102
RTVSPost2010Prop30
280
     1
102
RTVSPost2010PropOp30
 70
     1
102
RTVSPost2010Prop31
280
     0
102
RTVSPost2010PropOp31
 70
     1
102
RTVSPost2010Prop32
280
     0
102
RTVSPost2010PropOp32
 70
     1
102
RTVSPost2010Prop33
280
     0
102
RTVSPost2010PropOp33
 70
     1
102
RTVSPost2010Prop34
280
     0
102
RTVSPost2010PropOp34
 70
     1
102
RTVSPost2010Prop35
280
     0
102
RTVSPost2010PropOp35
 70
     1
102
RTVSPost2010Prop36
280
     0
102
RTVSPost2010PropOp36
 70
     1
102
RTVSPost2010Prop37
 90
       50
102
RTVSPost2010PropOp37
 70
     1
102
RTVSPost2010Prop38
140
0.0
102
RTVSPost2010PropOp38
 70
     1
102
RTVSPost2010Prop39
140
1.0
102
RTVSPost2010PropOp39
 70
     1
102
RTVSPost2010Prop40
 90
        0
102
RTVSPost2010PropOp40
 70
     1
102
RTVSPost2010Prop41ColorIndex
 90
       18
102
RTVSPost2010Prop41ColorRGB
 90
        0
102
RTVSPost2010PropOp41
 70
     1
102
RTVSPost2010Prop42
 90
       50
102
RTVSPost2010PropOp42
 70
     1
102
RTVSPost2010Prop43
 90
        3
102
RTVSPost2010PropOp43
 70
     1
102
RTVSPost2010Prop44ColorIndex
 90
        5
102
RTVSPost2010Prop44ColorRGB
 90
      255
102
RTVSPost2010PropOp44
 70
     1
102
RTVSPost2010Prop45
280
     0
102
RTVSPost2010PropOp45
 70
     1
102
RTVSPost2010Prop46
 90
       50
102
RTVSPost2010PropOp46
 70
     1
102
RTVSPost2010Prop47
 90
       50
102
RTVSPost2010PropOp47
 70
     1
102
RTVSPost2010Prop48
 90
       50
102
RTVSPost2010PropOp48
 70
     1
102
RTVSPost2010Prop49
280
     0
102
RTVSPost2010PropOp49
 70
     1
102
RTVSPost2010Prop50
 90
       50
102
RTVSPost2010PropOp50
 70
     1
102
RTVSPost2010Prop51ColorIndex
 90
      256
102
RTVSPost2010Prop51ColorRGB
 90
-16777216
102
RTVSPost2010PropOp51
 70
     0
102
RTVSPost2010Prop52
140
1.0
102
RTVSPost2010PropOp52
 70
     0
102
RTVSPost2010Prop53
 90
        2
102
RTVSPost2010PropOp53
 70
     1
102
RTVSPost2010Prop54
  1
strokes_ogs.tif
102
RTVSPost2010PropOp54
 70
     1
102
RTVSPost2010Prop55
280
     0
102
RTVSPost2010PropOp55
 70
     1
102
RTVSPost2010Prop56
140
1.0
102
RTVSPost2010PropOp56
 70
     1
102
RTVSPost2010Prop57
140
1.0
102
RTVSPost2010PropOp57
 70
     1
102
RTVSPropertyOp0
 70
     1
102
RTVSPropertyOp1
 70
     1
102
RTVSPropertyOp2
 70
     1
102
RTVSPropertyOp3
 70
     1
102
RTVSPropertyOp4
 70
     1
102
RTVSPropertyOp5
 70
     1
102
RTVSPropertyOp6
 70
     1
102
RTVSPropertyOp7
 70
     1
102
RTVSPropertyOp8
 70
     1
102
RTVSPropertyOp9
 70
     1
102
RTVSPropertyOp10
 70
     1
102
RTVSPropertyOp11
 70
     1
102
RTVSPropertyOp12
 70
     1
102
RTVSPropertyOp13
 70
     1
102
RTVSPropertyOp14
 70
     1
102
RTVSPropertyOp15
 70
     1
102
RTVSPropertyOp16
 70
     1
102
RTVSPropertyOp17
 70
     1
102
RTVSPropertyOp18
 70
     1
102
RTVSPropertyOp19
 70
     1
102
RTVSPropertyOp20
 70
     1
102
RTVSPropertyOp21
 70
     1
102
RTVSPropertyOp22
 70
     1
102
RTVSPropertyOp23
 70
     1
102
RTVSPropertyOp24
 70
     1
102
RTVSPropertyOp25
 70
     1
102
RTVSPropertyOp26
 70
     1
102
RTVSPropertyOp27
 70
     1
102
RTVSPropertyOp28
 70
     1
102
RTVSPropertyOp29
 70
     1
102
RTVSPropertyOp30
 70
     1
102
RTVSPropertyOp31
 70
     1
102
RTVSPropertyOp32
 70
     1
102
RTVSPropertyOp33
 70
     1
102
RTVSPropertyOp34
 70
     1
102
RTVSPropertyOp35
 70
     1
102
RTVSPropertyOp36
 70
     1
102
RTVSPropertyOp37
 70
     1
102
RTVSPropertyOp38
 70
     1
102
RTVSPropertyOp39
 70
     1
102
RTVSPropertyOp40
 70
     1
102
RTVSPropertyOp41
 70
     1
102
RTVSPropertyOp42
 70
     1
102
RTVSPropertyOp43
 70
     1
102
RTVSPropertyOp44
 70
     1
102
RTVSPropertyOp45
 70
     1
102
RTVSPropertyOp46
 70
     1
102
RTVSPropertyOp47
 70
     1
102
RTVSPropertyOp48
 70
     1
102
RTVSPropertyOp49
 70
     1
102
RTVSPropertyOp50
 70
     1
102
RTVSPropertyOp51
 70
     0
102
RTVSPropertyOp52
 70
     0
102
RTVSPropertyOp53
 70
     1
102
RTVSPropertyOp54
 70
     1
102
RTVSPropertyOp55
 70
     1
102
RTVSPropertyOp56
 70
     1
102
RTVSPropertyOp57
 70
     1
102
RTVSPropertyOp58
 70
     1
102
RTVSPropertyOp59
 70
     1
102
RTVSPropertyOp60
 70
     1
102
RTVSPropertyOp61
 70
     1
102
RTVSPropertyOp62
 70
     1
  0
XRECORD
  5
1AA74
102
{ACAD_REACTORS
330
1AA73
102
}
330
1AA73
100
AcDbXrecord
280
     1
102
RTVSPost2010Prop28
280
     0
102
RTVSPost2010PropOp28
 70
     1
102
RTVSPost2010Prop29
280
     1
102
RTVSPost2010PropOp29
 70
     1
102
RTVSPost2010Prop30
280
     1
102
RTVSPost2010PropOp30
 70
     1
102
RTVSPost2010Prop31
280
     0
102
RTVSPost2010PropOp31
 70
     1
102
RTVSPost2010Prop32
280
     0
102
RTVSPost2010PropOp32
 70
     1
102
RTVSPost2010Prop33
280
     0
102
RTVSPost2010PropOp33
 70
     1
102
RTVSPost2010Prop34
280
     0
102
RTVSPost2010PropOp34
 70
     1
102
RTVSPost2010Prop35
280
     0
102
RTVSPost2010PropOp35
 70
     1
102
RTVSPost2010Prop36
280
     0
102
RTVSPost2010PropOp36
 70
     1
102
RTVSPost2010Prop37
 90
       50
102
RTVSPost2010PropOp37
 70
     1
102
RTVSPost2010Prop38
140
0.0
102
RTVSPost2010PropOp38
 70
     1
102
RTVSPost2010Prop39
140
1.0
102
RTVSPost2010PropOp39
 70
     1
102
RTVSPost2010Prop40
 90
        0
102
RTVSPost2010PropOp40
 70
     1
102
RTVSPost2010Prop41ColorIndex
 90
       18
102
RTVSPost2010Prop41ColorRGB
 90
        0
102
RTVSPost2010PropOp41
 70
     1
102
RTVSPost2010Prop42
 90
       50
102
RTVSPost2010PropOp42
 70
     1
102
RTVSPost2010Prop43
 90
        3
102
RTVSPost2010PropOp43
 70
     1
102
RTVSPost2010Prop44ColorIndex
 90
        5
102
RTVSPost2010Prop44ColorRGB
 90
      255
102
RTVSPost2010PropOp44
 70
     1
102
RTVSPost2010Prop45
280
     0
102
RTVSPost2010PropOp45
 70
     1
102
RTVSPost2010Prop46
 90
       50
102
RTVSPost2010PropOp46
 70
     1
102
RTVSPost2010Prop47
 90
       50
102
RTVSPost2010PropOp47
 70
     1
102
RTVSPost2010Prop48
 90
       50
102
RTVSPost2010PropOp48
 70
     1
102
RTVSPost2010Prop49
280
     0
102
RTVSPost2010PropOp49
 70
     1
102
RTVSPost2010Prop50
 90
       50
102
RTVSPost2010PropOp50
 70
     1
102
RTVSPost2010Prop51ColorIndex
 90
      256
102
RTVSPost2010Prop51ColorRGB
 90
-16777216
102
RTVSPost2010PropOp51
 70
     0
102
RTVSPost2010Prop52
140
1.0
102
RTVSPost2010PropOp52
 70
     0
102
RTVSPost2010Prop53
 90
        2
102
RTVSPost2010PropOp53
 70
     1
102
RTVSPost2010Prop54
  1
strokes_ogs.tif
102
RTVSPost2010PropOp54
 70
     1
102
RTVSPost2010Prop55
280
     0
102
RTVSPost2010PropOp55
 70
     1
102
RTVSPost2010Prop56
140
1.0
102
RTVSPost2010PropOp56
 70
     1
102
RTVSPost2010Prop57
140
1.0
102
RTVSPost2010PropOp57
 70
     1
102
RTVSPropertyOp0
 70
     1
102
RTVSPropertyOp1
 70
     1
102
RTVSPropertyOp2
 70
     1
102
RTVSPropertyOp3
 70
     1
102
RTVSPropertyOp4
 70
     1
102
RTVSPropertyOp5
 70
     1
102
RTVSPropertyOp6
 70
     1
102
RTVSPropertyOp7
 70
     1
102
RTVSPropertyOp8
 70
     1
102
RTVSPropertyOp9
 70
     1
102
RTVSPropertyOp10
 70
     1
102
RTVSPropertyOp11
 70
     1
102
RTVSPropertyOp12
 70
     1
102
RTVSPropertyOp13
 70
     1
102
RTVSPropertyOp14
 70
     1
102
RTVSPropertyOp15
 70
     1
102
RTVSPropertyOp16
 70
     1
102
RTVSPropertyOp17
 70
     1
102
RTVSPropertyOp18
 70
     1
102
RTVSPropertyOp19
 70
     1
102
RTVSPropertyOp20
 70
     1
102
RTVSPropertyOp21
 70
     1
102
RTVSPropertyOp22
 70
     1
102
RTVSPropertyOp23
 70
     1
102
RTVSPropertyOp24
 70
     1
102
RTVSPropertyOp25
 70
     1
102
RTVSPropertyOp26
 70
     1
102
RTVSPropertyOp27
 70
     1
102
RTVSPropertyOp28
 70
     1
102
RTVSPropertyOp29
 70
     1
102
RTVSPropertyOp30
 70
     1
102
RTVSPropertyOp31
 70
     1
102
RTVSPropertyOp32
 70
     1
102
RTVSPropertyOp33
 70
     1
102
RTVSPropertyOp34
 70
     1
102
RTVSPropertyOp35
 70
     1
102
RTVSPropertyOp36
 70
     1
102
RTVSPropertyOp37
 70
     1
102
RTVSPropertyOp38
 70
     1
102
RTVSPropertyOp39
 70
     1
102
RTVSPropertyOp40
 70
     1
102
RTVSPropertyOp41
 70
     1
102
RTVSPropertyOp42
 70
     1
102
RTVSPropertyOp43
 70
     1
102
RTVSPropertyOp44
 70
     1
102
RTVSPropertyOp45
 70
     1
102
RTVSPropertyOp46
 70
     1
102
RTVSPropertyOp47
 70
     1
102
RTVSPropertyOp48
 70
     1
102
RTVSPropertyOp49
 70
     1
102
RTVSPropertyOp50
 70
     1
102
RTVSPropertyOp51
 70
     0
102
RTVSPropertyOp52
 70
     0
102
RTVSPropertyOp53
 70
     1
102
RTVSPropertyOp54
 70
     1
102
RTVSPropertyOp55
 70
     1
102
RTVSPropertyOp56
 70
     1
102
RTVSPropertyOp57
 70
     1
102
RTVSPropertyOp58
 70
     1
102
RTVSPropertyOp59
 70
     1
102
RTVSPropertyOp60
 70
     1
102
RTVSPropertyOp61
 70
     1
102
RTVSPropertyOp62
 70
     1
  0
XRECORD
  5
1AA66
102
{ACAD_REACTORS
330
1AA65
102
}
330
1AA65
100
AcDbXrecord
280
     1
102
RTVSPost2010Prop28
280
     0
102
RTVSPost2010PropOp28
 70
     1
102
RTVSPost2010Prop29
280
     1
102
RTVSPost2010PropOp29
 70
     1
102
RTVSPost2010Prop30
280
     1
102
RTVSPost2010PropOp30
 70
     1
102
RTVSPost2010Prop31
280
     0
102
RTVSPost2010PropOp31
 70
     1
102
RTVSPost2010Prop32
280
     0
102
RTVSPost2010PropOp32
 70
     1
102
RTVSPost2010Prop33
280
     0
102
RTVSPost2010PropOp33
 70
     1
102
RTVSPost2010Prop34
280
     0
102
RTVSPost2010PropOp34
 70
     1
102
RTVSPost2010Prop35
280
     0
102
RTVSPost2010PropOp35
 70
     1
102
RTVSPost2010Prop36
280
     0
102
RTVSPost2010PropOp36
 70
     1
102
RTVSPost2010Prop37
 90
       50
102
RTVSPost2010PropOp37
 70
     1
102
RTVSPost2010Prop38
140
0.0
102
RTVSPost2010PropOp38
 70
     1
102
RTVSPost2010Prop39
140
1.0
102
RTVSPost2010PropOp39
 70
     1
102
RTVSPost2010Prop40
 90
        0
102
RTVSPost2010PropOp40
 70
     1
102
RTVSPost2010Prop41ColorIndex
 90
       18
102
RTVSPost2010Prop41ColorRGB
 90
        0
102
RTVSPost2010PropOp41
 70
     1
102
RTVSPost2010Prop42
 90
       50
102
RTVSPost2010PropOp42
 70
     1
102
RTVSPost2010Prop43
 90
        3
102
RTVSPost2010PropOp43
 70
     1
102
RTVSPost2010Prop44ColorIndex
 90
        5
102
RTVSPost2010Prop44ColorRGB
 90
      255
102
RTVSPost2010PropOp44
 70
     1
102
RTVSPost2010Prop45
280
     0
102
RTVSPost2010PropOp45
 70
     1
102
RTVSPost2010Prop46
 90
       50
102
RTVSPost2010PropOp46
 70
     1
102
RTVSPost2010Prop47
 90
       50
102
RTVSPost2010PropOp47
 70
     1
102
RTVSPost2010Prop48
 90
       50
102
RTVSPost2010PropOp48
 70
     1
102
RTVSPost2010Prop49
280
     0
102
RTVSPost2010PropOp49
 70
     1
102
RTVSPost2010Prop50
 90
       50
102
RTVSPost2010PropOp50
 70
     1
102
RTVSPost2010Prop51ColorIndex
 90
      256
102
RTVSPost2010Prop51ColorRGB
 90
-16777216
102
RTVSPost2010PropOp51
 70
     0
102
RTVSPost2010Prop52
140
1.0
102
RTVSPost2010PropOp52
 70
     0
102
RTVSPost2010Prop53
 90
        2
102
RTVSPost2010PropOp53
 70
     1
102
RTVSPost2010Prop54
  1
strokes_ogs.tif
102
RTVSPost2010PropOp54
 70
     1
102
RTVSPost2010Prop55
280
     0
102
RTVSPost2010PropOp55
 70
     1
102
RTVSPost2010Prop56
140
1.0
102
RTVSPost2010PropOp56
 70
     1
102
RTVSPost2010Prop57
140
1.0
102
RTVSPost2010PropOp57
 70
     1
102
RTVSPropertyOp0
 70
     1
102
RTVSPropertyOp1
 70
     1
102
RTVSPropertyOp2
 70
     1
102
RTVSPropertyOp3
 70
     1
102
RTVSPropertyOp4
 70
     1
102
RTVSPropertyOp5
 70
     1
102
RTVSPropertyOp6
 70
     1
102
RTVSPropertyOp7
 70
     1
102
RTVSPropertyOp8
 70
     1
102
RTVSPropertyOp9
 70
     1
102
RTVSPropertyOp10
 70
     1
102
RTVSPropertyOp11
 70
     1
102
RTVSPropertyOp12
 70
     1
102
RTVSPropertyOp13
 70
     1
102
RTVSPropertyOp14
 70
     1
102
RTVSPropertyOp15
 70
     1
102
RTVSPropertyOp16
 70
     1
102
RTVSPropertyOp17
 70
     1
102
RTVSPropertyOp18
 70
     1
102
RTVSPropertyOp19
 70
     1
102
RTVSPropertyOp20
 70
     1
102
RTVSPropertyOp21
 70
     1
102
RTVSPropertyOp22
 70
     1
102
RTVSPropertyOp23
 70
     1
102
RTVSPropertyOp24
 70
     1
102
RTVSPropertyOp25
 70
     1
102
RTVSPropertyOp26
 70
     1
102
RTVSPropertyOp27
 70
     1
102
RTVSPropertyOp28
 70
     1
102
RTVSPropertyOp29
 70
     1
102
RTVSPropertyOp30
 70
     1
102
RTVSPropertyOp31
 70
     1
102
RTVSPropertyOp32
 70
     1
102
RTVSPropertyOp33
 70
     1
102
RTVSPropertyOp34
 70
     1
102
RTVSPropertyOp35
 70
     1
102
RTVSPropertyOp36
 70
     1
102
RTVSPropertyOp37
 70
     1
102
RTVSPropertyOp38
 70
     1
102
RTVSPropertyOp39
 70
     1
102
RTVSPropertyOp40
 70
     1
102
RTVSPropertyOp41
 70
     1
102
RTVSPropertyOp42
 70
     1
102
RTVSPropertyOp43
 70
     1
102
RTVSPropertyOp44
 70
     1
102
RTVSPropertyOp45
 70
     1
102
RTVSPropertyOp46
 70
     1
102
RTVSPropertyOp47
 70
     1
102
RTVSPropertyOp48
 70
     1
102
RTVSPropertyOp49
 70
     1
102
RTVSPropertyOp50
 70
     1
102
RTVSPropertyOp51
 70
     0
102
RTVSPropertyOp52
 70
     0
102
RTVSPropertyOp53
 70
     1
102
RTVSPropertyOp54
 70
     1
102
RTVSPropertyOp55
 70
     1
102
RTVSPropertyOp56
 70
     1
102
RTVSPropertyOp57
 70
     1
102
RTVSPropertyOp58
 70
     1
102
RTVSPropertyOp59
 70
     1
102
RTVSPropertyOp60
 70
     1
102
RTVSPropertyOp61
 70
     1
102
RTVSPropertyOp62
 70
     1
  0
XRECORD
  5
1AA6A
102
{ACAD_REACTORS
330
1AA69
102
}
330
1AA69
100
AcDbXrecord
280
     1
102
RTVSPost2010Prop28
280
     0
102
RTVSPost2010PropOp28
 70
     1
102
RTVSPost2010Prop29
280
     1
102
RTVSPost2010PropOp29
 70
     1
102
RTVSPost2010Prop30
280
     1
102
RTVSPost2010PropOp30
 70
     1
102
RTVSPost2010Prop31
280
     0
102
RTVSPost2010PropOp31
 70
     1
102
RTVSPost2010Prop32
280
     0
102
RTVSPost2010PropOp32
 70
     1
102
RTVSPost2010Prop33
280
     0
102
RTVSPost2010PropOp33
 70
     1
102
RTVSPost2010Prop34
280
     0
102
RTVSPost2010PropOp34
 70
     1
102
RTVSPost2010Prop35
280
     0
102
RTVSPost2010PropOp35
 70
     1
102
RTVSPost2010Prop36
280
     0
102
RTVSPost2010PropOp36
 70
     1
102
RTVSPost2010Prop37
 90
       50
102
RTVSPost2010PropOp37
 70
     1
102
RTVSPost2010Prop38
140
0.0
102
RTVSPost2010PropOp38
 70
     1
102
RTVSPost2010Prop39
140
1.0
102
RTVSPost2010PropOp39
 70
     1
102
RTVSPost2010Prop40
 90
        0
102
RTVSPost2010PropOp40
 70
     1
102
RTVSPost2010Prop41ColorIndex
 90
       18
102
RTVSPost2010Prop41ColorRGB
 90
        0
102
RTVSPost2010PropOp41
 70
     1
102
RTVSPost2010Prop42
 90
       50
102
RTVSPost2010PropOp42
 70
     1
102
RTVSPost2010Prop43
 90
        3
102
RTVSPost2010PropOp43
 70
     1
102
RTVSPost2010Prop44ColorIndex
 90
        5
102
RTVSPost2010Prop44ColorRGB
 90
      255
102
RTVSPost2010PropOp44
 70
     1
102
RTVSPost2010Prop45
280
     0
102
RTVSPost2010PropOp45
 70
     1
102
RTVSPost2010Prop46
 90
       50
102
RTVSPost2010PropOp46
 70
     1
102
RTVSPost2010Prop47
 90
       50
102
RTVSPost2010PropOp47
 70
     1
102
RTVSPost2010Prop48
 90
       50
102
RTVSPost2010PropOp48
 70
     1
102
RTVSPost2010Prop49
280
     0
102
RTVSPost2010PropOp49
 70
     1
102
RTVSPost2010Prop50
 90
       50
102
RTVSPost2010PropOp50
 70
     1
102
RTVSPost2010Prop51ColorIndex
 90
      256
102
RTVSPost2010Prop51ColorRGB
 90
-16777216
102
RTVSPost2010PropOp51
 70
     0
102
RTVSPost2010Prop52
140
1.0
102
RTVSPost2010PropOp52
 70
     0
102
RTVSPost2010Prop53
 90
        2
102
RTVSPost2010PropOp53
 70
     1
102
RTVSPost2010Prop54
  1
strokes_ogs.tif
102
RTVSPost2010PropOp54
 70
     1
102
RTVSPost2010Prop55
280
     0
102
RTVSPost2010PropOp55
 70
     1
102
RTVSPost2010Prop56
140
1.0
102
RTVSPost2010PropOp56
 70
     1
102
RTVSPost2010Prop57
140
1.0
102
RTVSPost2010PropOp57
 70
     1
102
RTVSPropertyOp0
 70
     1
102
RTVSPropertyOp1
 70
     1
102
RTVSPropertyOp2
 70
     1
102
RTVSPropertyOp3
 70
     1
102
RTVSPropertyOp4
 70
     1
102
RTVSPropertyOp5
 70
     1
102
RTVSPropertyOp6
 70
     1
102
RTVSPropertyOp7
 70
     1
102
RTVSPropertyOp8
 70
     1
102
RTVSPropertyOp9
 70
     1
102
RTVSPropertyOp10
 70
     1
102
RTVSPropertyOp11
 70
     1
102
RTVSPropertyOp12
 70
     1
102
RTVSPropertyOp13
 70
     1
102
RTVSPropertyOp14
 70
     1
102
RTVSPropertyOp15
 70
     1
102
RTVSPropertyOp16
 70
     1
102
RTVSPropertyOp17
 70
     1
102
RTVSPropertyOp18
 70
     1
102
RTVSPropertyOp19
 70
     1
102
RTVSPropertyOp20
 70
     1
102
RTVSPropertyOp21
 70
     1
102
RTVSPropertyOp22
 70
     1
102
RTVSPropertyOp23
 70
     1
102
RTVSPropertyOp24
 70
     1
102
RTVSPropertyOp25
 70
     1
102
RTVSPropertyOp26
 70
     1
102
RTVSPropertyOp27
 70
     1
102
RTVSPropertyOp28
 70
     1
102
RTVSPropertyOp29
 70
     1
102
RTVSPropertyOp30
 70
     1
102
RTVSPropertyOp31
 70
     1
102
RTVSPropertyOp32
 70
     1
102
RTVSPropertyOp33
 70
     1
102
RTVSPropertyOp34
 70
     1
102
RTVSPropertyOp35
 70
     1
102
RTVSPropertyOp36
 70
     1
102
RTVSPropertyOp37
 70
     1
102
RTVSPropertyOp38
 70
     1
102
RTVSPropertyOp39
 70
     1
102
RTVSPropertyOp40
 70
     1
102
RTVSPropertyOp41
 70
     1
102
RTVSPropertyOp42
 70
     1
102
RTVSPropertyOp43
 70
     1
102
RTVSPropertyOp44
 70
     1
102
RTVSPropertyOp45
 70
     1
102
RTVSPropertyOp46
 70
     1
102
RTVSPropertyOp47
 70
     1
102
RTVSPropertyOp48
 70
     1
102
RTVSPropertyOp49
 70
     1
102
RTVSPropertyOp50
 70
     1
102
RTVSPropertyOp51
 70
     0
102
RTVSPropertyOp52
 70
     0
102
RTVSPropertyOp53
 70
     1
102
RTVSPropertyOp54
 70
     1
102
RTVSPropertyOp55
 70
     1
102
RTVSPropertyOp56
 70
     1
102
RTVSPropertyOp57
 70
     1
102
RTVSPropertyOp58
 70
     1
102
RTVSPropertyOp59
 70
     1
102
RTVSPropertyOp60
 70
     1
102
RTVSPropertyOp61
 70
     1
102
RTVSPropertyOp62
 70
     1
  0
XRECORD
  5
1AA89
102
{ACAD_REACTORS
330
1AA88
102
}
330
1AA88
100
AcDbXrecord
280
     1
102
RTVSPost2010Prop28
280
     0
102
RTVSPost2010PropOp28
 70
     0
102
RTVSPost2010Prop29
280
     1
102
RTVSPost2010PropOp29
 70
     0
102
RTVSPost2010Prop30
280
     1
102
RTVSPost2010PropOp30
 70
     0
102
RTVSPost2010Prop31
280
     0
102
RTVSPost2010PropOp31
 70
     0
102
RTVSPost2010Prop32
280
     0
102
RTVSPost2010PropOp32
 70
     0
102
RTVSPost2010Prop33
280
     0
102
RTVSPost2010PropOp33
 70
     0
102
RTVSPost2010Prop34
280
     0
102
RTVSPost2010PropOp34
 70
     0
102
RTVSPost2010Prop35
280
     0
102
RTVSPost2010PropOp35
 70
     0
102
RTVSPost2010Prop36
280
     0
102
RTVSPost2010PropOp36
 70
     0
102
RTVSPost2010Prop37
 90
       50
102
RTVSPost2010PropOp37
 70
     0
102
RTVSPost2010Prop38
140
0.0
102
RTVSPost2010PropOp38
 70
     0
102
RTVSPost2010Prop39
140
1.0
102
RTVSPost2010PropOp39
 70
     0
102
RTVSPost2010Prop40
 90
        0
102
RTVSPost2010PropOp40
 70
     0
102
RTVSPost2010Prop41ColorIndex
 90
       18
102
RTVSPost2010Prop41ColorRGB
 90
        0
102
RTVSPost2010PropOp41
 70
     0
102
RTVSPost2010Prop42
 90
       50
102
RTVSPost2010PropOp42
 70
     0
102
RTVSPost2010Prop43
 90
        3
102
RTVSPost2010PropOp43
 70
     0
102
RTVSPost2010Prop44ColorIndex
 90
        5
102
RTVSPost2010Prop44ColorRGB
 90
      255
102
RTVSPost2010PropOp44
 70
     0
102
RTVSPost2010Prop45
280
     0
102
RTVSPost2010PropOp45
 70
     0
102
RTVSPost2010Prop46
 90
       50
102
RTVSPost2010PropOp46
 70
     0
102
RTVSPost2010Prop47
 90
       50
102
RTVSPost2010PropOp47
 70
     0
102
RTVSPost2010Prop48
 90
       50
102
RTVSPost2010PropOp48
 70
     0
102
RTVSPost2010Prop49
280
     0
102
RTVSPost2010PropOp49
 70
     0
102
RTVSPost2010Prop50
 90
       50
102
RTVSPost2010PropOp50
 70
     0
102
RTVSPost2010Prop51ColorIndex
 90
      256
102
RTVSPost2010Prop51ColorRGB
 90
-16777216
102
RTVSPost2010PropOp51
 70
     0
102
RTVSPost2010Prop52
140
1.0
102
RTVSPost2010PropOp52
 70
     0
102
RTVSPost2010Prop53
 90
        2
102
RTVSPost2010PropOp53
 70
     0
102
RTVSPost2010Prop54
  1
strokes_ogs.tif
102
RTVSPost2010PropOp54
 70
     0
102
RTVSPost2010Prop55
280
     0
102
RTVSPost2010PropOp55
 70
     0
102
RTVSPost2010Prop56
140
1.0
102
RTVSPost2010PropOp56
 70
     0
102
RTVSPost2010Prop57
140
1.0
102
RTVSPost2010PropOp57
 70
     0
102
RTVSPropertyOp0
 70
     0
102
RTVSPropertyOp1
 70
     0
102
RTVSPropertyOp2
 70
     0
102
RTVSPropertyOp3
 70
     0
102
RTVSPropertyOp4
 70
     0
102
RTVSPropertyOp5
 70
     0
102
RTVSPropertyOp6
 70
     0
102
RTVSPropertyOp7
 70
     0
102
RTVSPropertyOp8
 70
     0
102
RTVSPropertyOp9
 70
     0
102
RTVSPropertyOp10
 70
     0
102
RTVSPropertyOp11
 70
     0
102
RTVSPropertyOp12
 70
     0
102
RTVSPropertyOp13
 70
     0
102
RTVSPropertyOp14
 70
     2
102
RTVSPropertyOp15
 70
     0
102
RTVSPropertyOp16
 70
     0
102
RTVSPropertyOp17
 70
     0
102
RTVSPropertyOp18
 70
     0
102
RTVSPropertyOp19
 70
     0
102
RTVSPropertyOp20
 70
     0
102
RTVSPropertyOp21
 70
     0
102
RTVSPropertyOp22
 70
     0
102
RTVSPropertyOp23
 70
     0
102
RTVSPropertyOp24
 70
     0
102
RTVSPropertyOp25
 70
     0
102
RTVSPropertyOp26
 70
     0
102
RTVSPropertyOp27
 70
     0
102
RTVSPropertyOp28
 70
     0
102
RTVSPropertyOp29
 70
     0
102
RTVSPropertyOp30
 70
     0
102
RTVSPropertyOp31
 70
     0
102
RTVSPropertyOp32
 70
     0
102
RTVSPropertyOp33
 70
     0
102
RTVSPropertyOp34
 70
     0
102
RTVSPropertyOp35
 70
     0
102
RTVSPropertyOp36
 70
     0
102
RTVSPropertyOp37
 70
     0
102
RTVSPropertyOp38
 70
     0
102
RTVSPropertyOp39
 70
     0
102
RTVSPropertyOp40
 70
     0
102
RTVSPropertyOp41
 70
     0
102
RTVSPropertyOp42
 70
     0
102
RTVSPropertyOp43
 70
     0
102
RTVSPropertyOp44
 70
     0
102
RTVSPropertyOp45
 70
     0
102
RTVSPropertyOp46
 70
     0
102
RTVSPropertyOp47
 70
     0
102
RTVSPropertyOp48
 70
     0
102
RTVSPropertyOp49
 70
     0
102
RTVSPropertyOp50
 70
     0
102
RTVSPropertyOp51
 70
     0
102
RTVSPropertyOp52
 70
     0
102
RTVSPropertyOp53
 70
     0
102
RTVSPropertyOp54
 70
     0
102
RTVSPropertyOp55
 70
     0
102
RTVSPropertyOp56
 70
     0
102
RTVSPropertyOp57
 70
     0
102
RTVSPropertyOp58
 70
     0
102
RTVSPropertyOp59
 70
     0
102
RTVSPropertyOp60
 70
     0
102
RTVSPropertyOp61
 70
     0
102
RTVSPropertyOp62
 70
     0
  0
XRECORD
  5
1AA72
102
{ACAD_REACTORS
330
1AA71
102
}
330
1AA71
100
AcDbXrecord
280
     1
102
RTVSPost2010Prop28
280
     0
102
RTVSPost2010PropOp28
 70
     1
102
RTVSPost2010Prop29
280
     1
102
RTVSPost2010PropOp29
 70
     1
102
RTVSPost2010Prop30
280
     1
102
RTVSPost2010PropOp30
 70
     1
102
RTVSPost2010Prop31
280
     0
102
RTVSPost2010PropOp31
 70
     1
102
RTVSPost2010Prop32
280
     0
102
RTVSPost2010PropOp32
 70
     1
102
RTVSPost2010Prop33
280
     0
102
RTVSPost2010PropOp33
 70
     1
102
RTVSPost2010Prop34
280
     0
102
RTVSPost2010PropOp34
 70
     1
102
RTVSPost2010Prop35
280
     0
102
RTVSPost2010PropOp35
 70
     1
102
RTVSPost2010Prop36
280
     0
102
RTVSPost2010PropOp36
 70
     1
102
RTVSPost2010Prop37
 90
       50
102
RTVSPost2010PropOp37
 70
     1
102
RTVSPost2010Prop38
140
0.0
102
RTVSPost2010PropOp38
 70
     1
102
RTVSPost2010Prop39
140
1.0
102
RTVSPost2010PropOp39
 70
     1
102
RTVSPost2010Prop40
 90
        0
102
RTVSPost2010PropOp40
 70
     1
102
RTVSPost2010Prop41ColorIndex
 90
       18
102
RTVSPost2010Prop41ColorRGB
 90
        0
102
RTVSPost2010PropOp41
 70
     1
102
RTVSPost2010Prop42
 90
       50
102
RTVSPost2010PropOp42
 70
     1
102
RTVSPost2010Prop43
 90
        3
102
RTVSPost2010PropOp43
 70
     1
102
RTVSPost2010Prop44ColorIndex
 90
        5
102
RTVSPost2010Prop44ColorRGB
 90
      255
102
RTVSPost2010PropOp44
 70
     1
102
RTVSPost2010Prop45
280
     0
102
RTVSPost2010PropOp45
 70
     1
102
RTVSPost2010Prop46
 90
       50
102
RTVSPost2010PropOp46
 70
     1
102
RTVSPost2010Prop47
 90
       50
102
RTVSPost2010PropOp47
 70
     1
102
RTVSPost2010Prop48
 90
       50
102
RTVSPost2010PropOp48
 70
     1
102
RTVSPost2010Prop49
280
     0
102
RTVSPost2010PropOp49
 70
     1
102
RTVSPost2010Prop50
 90
       50
102
RTVSPost2010PropOp50
 70
     1
102
RTVSPost2010Prop51ColorIndex
 90
      256
102
RTVSPost2010Prop51ColorRGB
 90
-16777216
102
RTVSPost2010PropOp51
 70
     0
102
RTVSPost2010Prop52
140
1.0
102
RTVSPost2010PropOp52
 70
     0
102
RTVSPost2010Prop53
 90
        2
102
RTVSPost2010PropOp53
 70
     1
102
RTVSPost2010Prop54
  1
strokes_ogs.tif
102
RTVSPost2010PropOp54
 70
     1
102
RTVSPost2010Prop55
280
     0
102
RTVSPost2010PropOp55
 70
     1
102
RTVSPost2010Prop56
140
1.0
102
RTVSPost2010PropOp56
 70
     1
102
RTVSPost2010Prop57
140
1.0
102
RTVSPost2010PropOp57
 70
     1
102
RTVSPropertyOp0
 70
     1
102
RTVSPropertyOp1
 70
     1
102
RTVSPropertyOp2
 70
     1
102
RTVSPropertyOp3
 70
     1
102
RTVSPropertyOp4
 70
     1
102
RTVSPropertyOp5
 70
     1
102
RTVSPropertyOp6
 70
     1
102
RTVSPropertyOp7
 70
     1
102
RTVSPropertyOp8
 70
     1
102
RTVSPropertyOp9
 70
     1
102
RTVSPropertyOp10
 70
     1
102
RTVSPropertyOp11
 70
     1
102
RTVSPropertyOp12
 70
     1
102
RTVSPropertyOp13
 70
     1
102
RTVSPropertyOp14
 70
     1
102
RTVSPropertyOp15
 70
     1
102
RTVSPropertyOp16
 70
     1
102
RTVSPropertyOp17
 70
     1
102
RTVSPropertyOp18
 70
     1
102
RTVSPropertyOp19
 70
     1
102
RTVSPropertyOp20
 70
     1
102
RTVSPropertyOp21
 70
     1
102
RTVSPropertyOp22
 70
     1
102
RTVSPropertyOp23
 70
     1
102
RTVSPropertyOp24
 70
     1
102
RTVSPropertyOp25
 70
     1
102
RTVSPropertyOp26
 70
     1
102
RTVSPropertyOp27
 70
     1
102
RTVSPropertyOp28
 70
     1
102
RTVSPropertyOp29
 70
     1
102
RTVSPropertyOp30
 70
     1
102
RTVSPropertyOp31
 70
     1
102
RTVSPropertyOp32
 70
     1
102
RTVSPropertyOp33
 70
     1
102
RTVSPropertyOp34
 70
     1
102
RTVSPropertyOp35
 70
     1
102
RTVSPropertyOp36
 70
     1
102
RTVSPropertyOp37
 70
     1
102
RTVSPropertyOp38
 70
     1
102
RTVSPropertyOp39
 70
     1
102
RTVSPropertyOp40
 70
     1
102
RTVSPropertyOp41
 70
     1
102
RTVSPropertyOp42
 70
     1
102
RTVSPropertyOp43
 70
     1
102
RTVSPropertyOp44
 70
     1
102
RTVSPropertyOp45
 70
     1
102
RTVSPropertyOp46
 70
     1
102
RTVSPropertyOp47
 70
     1
102
RTVSPropertyOp48
 70
     1
102
RTVSPropertyOp49
 70
     1
102
RTVSPropertyOp50
 70
     1
102
RTVSPropertyOp51
 70
     0
102
RTVSPropertyOp52
 70
     0
102
RTVSPropertyOp53
 70
     1
102
RTVSPropertyOp54
 70
     1
102
RTVSPropertyOp55
 70
     1
102
RTVSPropertyOp56
 70
     1
102
RTVSPropertyOp57
 70
     1
102
RTVSPropertyOp58
 70
     1
102
RTVSPropertyOp59
 70
     1
102
RTVSPropertyOp60
 70
     1
102
RTVSPropertyOp61
 70
     1
102
RTVSPropertyOp62
 70
     1
  0
XRECORD
  5
1AA56
102
{ACAD_REACTORS
330
1AA55
102
}
330
1AA55
100
AcDbXrecord
280
     1
102
RTVSPost2010Prop28
280
     0
102
RTVSPost2010PropOp28
 70
     1
102
RTVSPost2010Prop29
280
     1
102
RTVSPost2010PropOp29
 70
     1
102
RTVSPost2010Prop30
280
     1
102
RTVSPost2010PropOp30
 70
     1
102
RTVSPost2010Prop31
280
     0
102
RTVSPost2010PropOp31
 70
     1
102
RTVSPost2010Prop32
280
     0
102
RTVSPost2010PropOp32
 70
     1
102
RTVSPost2010Prop33
280
     0
102
RTVSPost2010PropOp33
 70
     1
102
RTVSPost2010Prop34
280
     0
102
RTVSPost2010PropOp34
 70
     1
102
RTVSPost2010Prop35
280
     0
102
RTVSPost2010PropOp35
 70
     1
102
RTVSPost2010Prop36
280
     0
102
RTVSPost2010PropOp36
 70
     1
102
RTVSPost2010Prop37
 90
       50
102
RTVSPost2010PropOp37
 70
     1
102
RTVSPost2010Prop38
140
0.0
102
RTVSPost2010PropOp38
 70
     1
102
RTVSPost2010Prop39
140
1.0
102
RTVSPost2010PropOp39
 70
     1
102
RTVSPost2010Prop40
 90
        0
102
RTVSPost2010PropOp40
 70
     1
102
RTVSPost2010Prop41ColorIndex
 90
       18
102
RTVSPost2010Prop41ColorRGB
 90
        0
102
RTVSPost2010PropOp41
 70
     1
102
RTVSPost2010Prop42
 90
       50
102
RTVSPost2010PropOp42
 70
     1
102
RTVSPost2010Prop43
 90
        3
102
RTVSPost2010PropOp43
 70
     1
102
RTVSPost2010Prop44ColorIndex
 90
        5
102
RTVSPost2010Prop44ColorRGB
 90
      255
102
RTVSPost2010PropOp44
 70
     1
102
RTVSPost2010Prop45
280
     0
102
RTVSPost2010PropOp45
 70
     1
102
RTVSPost2010Prop46
 90
       50
102
RTVSPost2010PropOp46
 70
     1
102
RTVSPost2010Prop47
 90
       50
102
RTVSPost2010PropOp47
 70
     1
102
RTVSPost2010Prop48
 90
       50
102
RTVSPost2010PropOp48
 70
     1
102
RTVSPost2010Prop49
280
     0
102
RTVSPost2010PropOp49
 70
     1
102
RTVSPost2010Prop50
 90
       50
102
RTVSPost2010PropOp50
 70
     1
102
RTVSPost2010Prop51ColorIndex
 90
      256
102
RTVSPost2010Prop51ColorRGB
 90
-16777216
102
RTVSPost2010PropOp51
 70
     0
102
RTVSPost2010Prop52
140
1.0
102
RTVSPost2010PropOp52
 70
     0
102
RTVSPost2010Prop53
 90
        2
102
RTVSPost2010PropOp53
 70
     1
102
RTVSPost2010Prop54
  1
strokes_ogs.tif
102
RTVSPost2010PropOp54
 70
     1
102
RTVSPost2010Prop55
280
     0
102
RTVSPost2010PropOp55
 70
     1
102
RTVSPost2010Prop56
140
1.0
102
RTVSPost2010PropOp56
 70
     1
102
RTVSPost2010Prop57
140
1.0
102
RTVSPost2010PropOp57
 70
     1
102
RTVSPropertyOp0
 70
     1
102
RTVSPropertyOp1
 70
     1
102
RTVSPropertyOp2
 70
     1
102
RTVSPropertyOp3
 70
     1
102
RTVSPropertyOp4
 70
     1
102
RTVSPropertyOp5
 70
     1
102
RTVSPropertyOp6
 70
     1
102
RTVSPropertyOp7
 70
     1
102
RTVSPropertyOp8
 70
     1
102
RTVSPropertyOp9
 70
     1
102
RTVSPropertyOp10
 70
     1
102
RTVSPropertyOp11
 70
     1
102
RTVSPropertyOp12
 70
     1
102
RTVSPropertyOp13
 70
     1
102
RTVSPropertyOp14
 70
     1
102
RTVSPropertyOp15
 70
     1
102
RTVSPropertyOp16
 70
     1
102
RTVSPropertyOp17
 70
     1
102
RTVSPropertyOp18
 70
     1
102
RTVSPropertyOp19
 70
     1
102
RTVSPropertyOp20
 70
     1
102
RTVSPropertyOp21
 70
     1
102
RTVSPropertyOp22
 70
     1
102
RTVSPropertyOp23
 70
     1
102
RTVSPropertyOp24
 70
     1
102
RTVSPropertyOp25
 70
     1
102
RTVSPropertyOp26
 70
     1
102
RTVSPropertyOp27
 70
     1
102
RTVSPropertyOp28
 70
     1
102
RTVSPropertyOp29
 70
     1
102
RTVSPropertyOp30
 70
     1
102
RTVSPropertyOp31
 70
     1
102
RTVSPropertyOp32
 70
     1
102
RTVSPropertyOp33
 70
     1
102
RTVSPropertyOp34
 70
     1
102
RTVSPropertyOp35
 70
     1
102
RTVSPropertyOp36
 70
     1
102
RTVSPropertyOp37
 70
     1
102
RTVSPropertyOp38
 70
     1
102
RTVSPropertyOp39
 70
     1
102
RTVSPropertyOp40
 70
     1
102
RTVSPropertyOp41
 70
     1
102
RTVSPropertyOp42
 70
     1
102
RTVSPropertyOp43
 70
     1
102
RTVSPropertyOp44
 70
     1
102
RTVSPropertyOp45
 70
     1
102
RTVSPropertyOp46
 70
     1
102
RTVSPropertyOp47
 70
     1
102
RTVSPropertyOp48
 70
     1
102
RTVSPropertyOp49
 70
     1
102
RTVSPropertyOp50
 70
     1
102
RTVSPropertyOp51
 70
     0
102
RTVSPropertyOp52
 70
     0
102
RTVSPropertyOp53
 70
     1
102
RTVSPropertyOp54
 70
     1
102
RTVSPropertyOp55
 70
     1
102
RTVSPropertyOp56
 70
     1
102
RTVSPropertyOp57
 70
     1
102
RTVSPropertyOp58
 70
     1
102
RTVSPropertyOp59
 70
     1
102
RTVSPropertyOp60
 70
     1
102
RTVSPropertyOp61
 70
     1
102
RTVSPropertyOp62
 70
     1
  0
XRECORD
  5
1AA58
102
{ACAD_REACTORS
330
1AA57
102
}
330
1AA57
100
AcDbXrecord
280
     1
102
RTVSPost2010Prop28
280
     0
102
RTVSPost2010PropOp28
 70
     1
102
RTVSPost2010Prop29
280
     1
102
RTVSPost2010PropOp29
 70
     1
102
RTVSPost2010Prop30
280
     1
102
RTVSPost2010PropOp30
 70
     1
102
RTVSPost2010Prop31
280
     0
102
RTVSPost2010PropOp31
 70
     1
102
RTVSPost2010Prop32
280
     0
102
RTVSPost2010PropOp32
 70
     1
102
RTVSPost2010Prop33
280
     0
102
RTVSPost2010PropOp33
 70
     1
102
RTVSPost2010Prop34
280
     0
102
RTVSPost2010PropOp34
 70
     1
102
RTVSPost2010Prop35
280
     0
102
RTVSPost2010PropOp35
 70
     1
102
RTVSPost2010Prop36
280
     0
102
RTVSPost2010PropOp36
 70
     1
102
RTVSPost2010Prop37
 90
       50
102
RTVSPost2010PropOp37
 70
     1
102
RTVSPost2010Prop38
140
0.0
102
RTVSPost2010PropOp38
 70
     1
102
RTVSPost2010Prop39
140
1.0
102
RTVSPost2010PropOp39
 70
     1
102
RTVSPost2010Prop40
 90
        0
102
RTVSPost2010PropOp40
 70
     1
102
RTVSPost2010Prop41ColorIndex
 90
       18
102
RTVSPost2010Prop41ColorRGB
 90
        0
102
RTVSPost2010PropOp41
 70
     1
102
RTVSPost2010Prop42
 90
       50
102
RTVSPost2010PropOp42
 70
     1
102
RTVSPost2010Prop43
 90
        3
102
RTVSPost2010PropOp43
 70
     1
102
RTVSPost2010Prop44ColorIndex
 90
        5
102
RTVSPost2010Prop44ColorRGB
 90
      255
102
RTVSPost2010PropOp44
 70
     1
102
RTVSPost2010Prop45
280
     0
102
RTVSPost2010PropOp45
 70
     1
102
RTVSPost2010Prop46
 90
       50
102
RTVSPost2010PropOp46
 70
     1
102
RTVSPost2010Prop47
 90
       50
102
RTVSPost2010PropOp47
 70
     1
102
RTVSPost2010Prop48
 90
       50
102
RTVSPost2010PropOp48
 70
     1
102
RTVSPost2010Prop49
280
     0
102
RTVSPost2010PropOp49
 70
     1
102
RTVSPost2010Prop50
 90
       50
102
RTVSPost2010PropOp50
 70
     1
102
RTVSPost2010Prop51ColorIndex
 90
      256
102
RTVSPost2010Prop51ColorRGB
 90
-16777216
102
RTVSPost2010PropOp51
 70
     0
102
RTVSPost2010Prop52
140
1.0
102
RTVSPost2010PropOp52
 70
     0
102
RTVSPost2010Prop53
 90
        2
102
RTVSPost2010PropOp53
 70
     1
102
RTVSPost2010Prop54
  1
strokes_ogs.tif
102
RTVSPost2010PropOp54
 70
     1
102
RTVSPost2010Prop55
280
     0
102
RTVSPost2010PropOp55
 70
     1
102
RTVSPost2010Prop56
140
1.0
102
RTVSPost2010PropOp56
 70
     1
102
RTVSPost2010Prop57
140
1.0
102
RTVSPost2010PropOp57
 70
     1
102
RTVSPropertyOp0
 70
     1
102
RTVSPropertyOp1
 70
     1
102
RTVSPropertyOp2
 70
     1
102
RTVSPropertyOp3
 70
     1
102
RTVSPropertyOp4
 70
     1
102
RTVSPropertyOp5
 70
     1
102
RTVSPropertyOp6
 70
     1
102
RTVSPropertyOp7
 70
     1
102
RTVSPropertyOp8
 70
     1
102
RTVSPropertyOp9
 70
     1
102
RTVSPropertyOp10
 70
     1
102
RTVSPropertyOp11
 70
     1
102
RTVSPropertyOp12
 70
     1
102
RTVSPropertyOp13
 70
     1
102
RTVSPropertyOp14
 70
     1
102
RTVSPropertyOp15
 70
     1
102
RTVSPropertyOp16
 70
     1
102
RTVSPropertyOp17
 70
     1
102
RTVSPropertyOp18
 70
     1
102
RTVSPropertyOp19
 70
     1
102
RTVSPropertyOp20
 70
     1
102
RTVSPropertyOp21
 70
     1
102
RTVSPropertyOp22
 70
     1
102
RTVSPropertyOp23
 70
     1
102
RTVSPropertyOp24
 70
     1
102
RTVSPropertyOp25
 70
     1
102
RTVSPropertyOp26
 70
     1
102
RTVSPropertyOp27
 70
     1
102
RTVSPropertyOp28
 70
     1
102
RTVSPropertyOp29
 70
     1
102
RTVSPropertyOp30
 70
     1
102
RTVSPropertyOp31
 70
     1
102
RTVSPropertyOp32
 70
     1
102
RTVSPropertyOp33
 70
     1
102
RTVSPropertyOp34
 70
     1
102
RTVSPropertyOp35
 70
     1
102
RTVSPropertyOp36
 70
     1
102
RTVSPropertyOp37
 70
     1
102
RTVSPropertyOp38
 70
     1
102
RTVSPropertyOp39
 70
     1
102
RTVSPropertyOp40
 70
     1
102
RTVSPropertyOp41
 70
     1
102
RTVSPropertyOp42
 70
     1
102
RTVSPropertyOp43
 70
     1
102
RTVSPropertyOp44
 70
     1
102
RTVSPropertyOp45
 70
     1
102
RTVSPropertyOp46
 70
     1
102
RTVSPropertyOp47
 70
     1
102
RTVSPropertyOp48
 70
     1
102
RTVSPropertyOp49
 70
     1
102
RTVSPropertyOp50
 70
     1
102
RTVSPropertyOp51
 70
     0
102
RTVSPropertyOp52
 70
     0
102
RTVSPropertyOp53
 70
     1
102
RTVSPropertyOp54
 70
     1
102
RTVSPropertyOp55
 70
     1
102
RTVSPropertyOp56
 70
     1
102
RTVSPropertyOp57
 70
     1
102
RTVSPropertyOp58
 70
     1
102
RTVSPropertyOp59
 70
     1
102
RTVSPropertyOp60
 70
     1
102
RTVSPropertyOp61
 70
     1
102
RTVSPropertyOp62
 70
     1
  0
XRECORD
  5
1AA5A
102
{ACAD_REACTORS
330
1AA59
102
}
330
1AA59
100
AcDbXrecord
280
     1
102
RTVSPost2010Prop28
280
     0
102
RTVSPost2010PropOp28
 70
     1
102
RTVSPost2010Prop29
280
     1
102
RTVSPost2010PropOp29
 70
     1
102
RTVSPost2010Prop30
280
     1
102
RTVSPost2010PropOp30
 70
     1
102
RTVSPost2010Prop31
280
     0
102
RTVSPost2010PropOp31
 70
     1
102
RTVSPost2010Prop32
280
     0
102
RTVSPost2010PropOp32
 70
     1
102
RTVSPost2010Prop33
280
     0
102
RTVSPost2010PropOp33
 70
     1
102
RTVSPost2010Prop34
280
     0
102
RTVSPost2010PropOp34
 70
     1
102
RTVSPost2010Prop35
280
     0
102
RTVSPost2010PropOp35
 70
     1
102
RTVSPost2010Prop36
280
     0
102
RTVSPost2010PropOp36
 70
     1
102
RTVSPost2010Prop37
 90
       50
102
RTVSPost2010PropOp37
 70
     1
102
RTVSPost2010Prop38
140
0.0
102
RTVSPost2010PropOp38
 70
     1
102
RTVSPost2010Prop39
140
1.0
102
RTVSPost2010PropOp39
 70
     1
102
RTVSPost2010Prop40
 90
        0
102
RTVSPost2010PropOp40
 70
     1
102
RTVSPost2010Prop41ColorIndex
 90
       18
102
RTVSPost2010Prop41ColorRGB
 90
        0
102
RTVSPost2010PropOp41
 70
     1
102
RTVSPost2010Prop42
 90
       50
102
RTVSPost2010PropOp42
 70
     1
102
RTVSPost2010Prop43
 90
        3
102
RTVSPost2010PropOp43
 70
     1
102
RTVSPost2010Prop44ColorIndex
 90
        5
102
RTVSPost2010Prop44ColorRGB
 90
      255
102
RTVSPost2010PropOp44
 70
     1
102
RTVSPost2010Prop45
280
     0
102
RTVSPost2010PropOp45
 70
     1
102
RTVSPost2010Prop46
 90
       50
102
RTVSPost2010PropOp46
 70
     1
102
RTVSPost2010Prop47
 90
       50
102
RTVSPost2010PropOp47
 70
     1
102
RTVSPost2010Prop48
 90
       50
102
RTVSPost2010PropOp48
 70
     1
102
RTVSPost2010Prop49
280
     0
102
RTVSPost2010PropOp49
 70
     1
102
RTVSPost2010Prop50
 90
       50
102
RTVSPost2010PropOp50
 70
     1
102
RTVSPost2010Prop51ColorIndex
 90
      256
102
RTVSPost2010Prop51ColorRGB
 90
-16777216
102
RTVSPost2010PropOp51
 70
     0
102
RTVSPost2010Prop52
140
1.0
102
RTVSPost2010PropOp52
 70
     0
102
RTVSPost2010Prop53
 90
        2
102
RTVSPost2010PropOp53
 70
     1
102
RTVSPost2010Prop54
  1
strokes_ogs.tif
102
RTVSPost2010PropOp54
 70
     1
102
RTVSPost2010Prop55
280
     0
102
RTVSPost2010PropOp55
 70
     1
102
RTVSPost2010Prop56
140
1.0
102
RTVSPost2010PropOp56
 70
     1
102
RTVSPost2010Prop57
140
1.0
102
RTVSPost2010PropOp57
 70
     1
102
RTVSPropertyOp0
 70
     1
102
RTVSPropertyOp1
 70
     1
102
RTVSPropertyOp2
 70
     1
102
RTVSPropertyOp3
 70
     1
102
RTVSPropertyOp4
 70
     1
102
RTVSPropertyOp5
 70
     1
102
RTVSPropertyOp6
 70
     1
102
RTVSPropertyOp7
 70
     1
102
RTVSPropertyOp8
 70
     1
102
RTVSPropertyOp9
 70
     1
102
RTVSPropertyOp10
 70
     1
102
RTVSPropertyOp11
 70
     1
102
RTVSPropertyOp12
 70
     1
102
RTVSPropertyOp13
 70
     1
102
RTVSPropertyOp14
 70
     1
102
RTVSPropertyOp15
 70
     1
102
RTVSPropertyOp16
 70
     1
102
RTVSPropertyOp17
 70
     1
102
RTVSPropertyOp18
 70
     1
102
RTVSPropertyOp19
 70
     1
102
RTVSPropertyOp20
 70
     1
102
RTVSPropertyOp21
 70
     1
102
RTVSPropertyOp22
 70
     1
102
RTVSPropertyOp23
 70
     1
102
RTVSPropertyOp24
 70
     1
102
RTVSPropertyOp25
 70
     1
102
RTVSPropertyOp26
 70
     1
102
RTVSPropertyOp27
 70
     1
102
RTVSPropertyOp28
 70
     1
102
RTVSPropertyOp29
 70
     1
102
RTVSPropertyOp30
 70
     1
102
RTVSPropertyOp31
 70
     1
102
RTVSPropertyOp32
 70
     1
102
RTVSPropertyOp33
 70
     1
102
RTVSPropertyOp34
 70
     1
102
RTVSPropertyOp35
 70
     1
102
RTVSPropertyOp36
 70
     1
102
RTVSPropertyOp37
 70
     1
102
RTVSPropertyOp38
 70
     1
102
RTVSPropertyOp39
 70
     1
102
RTVSPropertyOp40
 70
     1
102
RTVSPropertyOp41
 70
     1
102
RTVSPropertyOp42
 70
     1
102
RTVSPropertyOp43
 70
     1
102
RTVSPropertyOp44
 70
     1
102
RTVSPropertyOp45
 70
     1
102
RTVSPropertyOp46
 70
     1
102
RTVSPropertyOp47
 70
     1
102
RTVSPropertyOp48
 70
     1
102
RTVSPropertyOp49
 70
     1
102
RTVSPropertyOp50
 70
     1
102
RTVSPropertyOp51
 70
     0
102
RTVSPropertyOp52
 70
     0
102
RTVSPropertyOp53
 70
     1
102
RTVSPropertyOp54
 70
     1
102
RTVSPropertyOp55
 70
     1
102
RTVSPropertyOp56
 70
     1
102
RTVSPropertyOp57
 70
     1
102
RTVSPropertyOp58
 70
     1
102
RTVSPropertyOp59
 70
     1
102
RTVSPropertyOp60
 70
     1
102
RTVSPropertyOp61
 70
     1
102
RTVSPropertyOp62
 70
     1
  0
XRECORD
  5
1AA5C
102
{ACAD_REACTORS
330
1AA5B
102
}
330
1AA5B
100
AcDbXrecord
280
     1
102
RTVSPost2010Prop28
280
     0
102
RTVSPost2010PropOp28
 70
     1
102
RTVSPost2010Prop29
280
     1
102
RTVSPost2010PropOp29
 70
     1
102
RTVSPost2010Prop30
280
     1
102
RTVSPost2010PropOp30
 70
     1
102
RTVSPost2010Prop31
280
     0
102
RTVSPost2010PropOp31
 70
     1
102
RTVSPost2010Prop32
280
     0
102
RTVSPost2010PropOp32
 70
     1
102
RTVSPost2010Prop33
280
     0
102
RTVSPost2010PropOp33
 70
     1
102
RTVSPost2010Prop34
280
     0
102
RTVSPost2010PropOp34
 70
     1
102
RTVSPost2010Prop35
280
     0
102
RTVSPost2010PropOp35
 70
     1
102
RTVSPost2010Prop36
280
     0
102
RTVSPost2010PropOp36
 70
     1
102
RTVSPost2010Prop37
 90
       50
102
RTVSPost2010PropOp37
 70
     1
102
RTVSPost2010Prop38
140
0.0
102
RTVSPost2010PropOp38
 70
     1
102
RTVSPost2010Prop39
140
1.0
102
RTVSPost2010PropOp39
 70
     1
102
RTVSPost2010Prop40
 90
        0
102
RTVSPost2010PropOp40
 70
     1
102
RTVSPost2010Prop41ColorIndex
 90
       18
102
RTVSPost2010Prop41ColorRGB
 90
        0
102
RTVSPost2010PropOp41
 70
     1
102
RTVSPost2010Prop42
 90
       50
102
RTVSPost2010PropOp42
 70
     1
102
RTVSPost2010Prop43
 90
        3
102
RTVSPost2010PropOp43
 70
     1
102
RTVSPost2010Prop44ColorIndex
 90
        5
102
RTVSPost2010Prop44ColorRGB
 90
      255
102
RTVSPost2010PropOp44
 70
     1
102
RTVSPost2010Prop45
280
     0
102
RTVSPost2010PropOp45
 70
     1
102
RTVSPost2010Prop46
 90
       50
102
RTVSPost2010PropOp46
 70
     1
102
RTVSPost2010Prop47
 90
       50
102
RTVSPost2010PropOp47
 70
     1
102
RTVSPost2010Prop48
 90
       50
102
RTVSPost2010PropOp48
 70
     1
102
RTVSPost2010Prop49
280
     0
102
RTVSPost2010PropOp49
 70
     1
102
RTVSPost2010Prop50
 90
       50
102
RTVSPost2010PropOp50
 70
     1
102
RTVSPost2010Prop51ColorIndex
 90
      256
102
RTVSPost2010Prop51ColorRGB
 90
-16777216
102
RTVSPost2010PropOp51
 70
     0
102
RTVSPost2010Prop52
140
1.0
102
RTVSPost2010PropOp52
 70
     0
102
RTVSPost2010Prop53
 90
        2
102
RTVSPost2010PropOp53
 70
     1
102
RTVSPost2010Prop54
  1
strokes_ogs.tif
102
RTVSPost2010PropOp54
 70
     1
102
RTVSPost2010Prop55
280
     0
102
RTVSPost2010PropOp55
 70
     1
102
RTVSPost2010Prop56
140
1.0
102
RTVSPost2010PropOp56
 70
     1
102
RTVSPost2010Prop57
140
1.0
102
RTVSPost2010PropOp57
 70
     1
102
RTVSPropertyOp0
 70
     1
102
RTVSPropertyOp1
 70
     1
102
RTVSPropertyOp2
 70
     1
102
RTVSPropertyOp3
 70
     1
102
RTVSPropertyOp4
 70
     1
102
RTVSPropertyOp5
 70
     1
102
RTVSPropertyOp6
 70
     1
102
RTVSPropertyOp7
 70
     1
102
RTVSPropertyOp8
 70
     1
102
RTVSPropertyOp9
 70
     1
102
RTVSPropertyOp10
 70
     1
102
RTVSPropertyOp11
 70
     1
102
RTVSPropertyOp12
 70
     1
102
RTVSPropertyOp13
 70
     1
102
RTVSPropertyOp14
 70
     1
102
RTVSPropertyOp15
 70
     1
102
RTVSPropertyOp16
 70
     1
102
RTVSPropertyOp17
 70
     1
102
RTVSPropertyOp18
 70
     1
102
RTVSPropertyOp19
 70
     1
102
RTVSPropertyOp20
 70
     1
102
RTVSPropertyOp21
 70
     1
102
RTVSPropertyOp22
 70
     1
102
RTVSPropertyOp23
 70
     1
102
RTVSPropertyOp24
 70
     1
102
RTVSPropertyOp25
 70
     1
102
RTVSPropertyOp26
 70
     1
102
RTVSPropertyOp27
 70
     1
102
RTVSPropertyOp28
 70
     1
102
RTVSPropertyOp29
 70
     1
102
RTVSPropertyOp30
 70
     1
102
RTVSPropertyOp31
 70
     1
102
RTVSPropertyOp32
 70
     1
102
RTVSPropertyOp33
 70
     1
102
RTVSPropertyOp34
 70
     1
102
RTVSPropertyOp35
 70
     1
102
RTVSPropertyOp36
 70
     1
102
RTVSPropertyOp37
 70
     1
102
RTVSPropertyOp38
 70
     1
102
RTVSPropertyOp39
 70
     1
102
RTVSPropertyOp40
 70
     1
102
RTVSPropertyOp41
 70
     1
102
RTVSPropertyOp42
 70
     1
102
RTVSPropertyOp43
 70
     1
102
RTVSPropertyOp44
 70
     1
102
RTVSPropertyOp45
 70
     1
102
RTVSPropertyOp46
 70
     1
102
RTVSPropertyOp47
 70
     1
102
RTVSPropertyOp48
 70
     1
102
RTVSPropertyOp49
 70
     1
102
RTVSPropertyOp50
 70
     1
102
RTVSPropertyOp51
 70
     0
102
RTVSPropertyOp52
 70
     0
102
RTVSPropertyOp53
 70
     1
102
RTVSPropertyOp54
 70
     1
102
RTVSPropertyOp55
 70
     1
102
RTVSPropertyOp56
 70
     1
102
RTVSPropertyOp57
 70
     1
102
RTVSPropertyOp58
 70
     1
102
RTVSPropertyOp59
 70
     1
102
RTVSPropertyOp60
 70
     1
102
RTVSPropertyOp61
 70
     1
102
RTVSPropertyOp62
 70
     1
  0
XRECORD
  5
1AA79
102
{ACAD_REACTORS
330
1AA78
102
}
330
1AA78
100
AcDbXrecord
280
     1
102
RTVSPost2010Prop28
280
     0
102
RTVSPost2010PropOp28
 70
     1
102
RTVSPost2010Prop29
280
     1
102
RTVSPost2010PropOp29
 70
     1
102
RTVSPost2010Prop30
280
     1
102
RTVSPost2010PropOp30
 70
     1
102
RTVSPost2010Prop31
280
     0
102
RTVSPost2010PropOp31
 70
     1
102
RTVSPost2010Prop32
280
     0
102
RTVSPost2010PropOp32
 70
     1
102
RTVSPost2010Prop33
280
     0
102
RTVSPost2010PropOp33
 70
     1
102
RTVSPost2010Prop34
280
     0
102
RTVSPost2010PropOp34
 70
     1
102
RTVSPost2010Prop35
280
     0
102
RTVSPost2010PropOp35
 70
     1
102
RTVSPost2010Prop36
280
     0
102
RTVSPost2010PropOp36
 70
     1
102
RTVSPost2010Prop37
 90
       50
102
RTVSPost2010PropOp37
 70
     1
102
RTVSPost2010Prop38
140
0.0
102
RTVSPost2010PropOp38
 70
     1
102
RTVSPost2010Prop39
140
1.0
102
RTVSPost2010PropOp39
 70
     1
102
RTVSPost2010Prop40
 90
        0
102
RTVSPost2010PropOp40
 70
     1
102
RTVSPost2010Prop41ColorIndex
 90
       18
102
RTVSPost2010Prop41ColorRGB
 90
        0
102
RTVSPost2010PropOp41
 70
     1
102
RTVSPost2010Prop42
 90
       50
102
RTVSPost2010PropOp42
 70
     1
102
RTVSPost2010Prop43
 90
        3
102
RTVSPost2010PropOp43
 70
     1
102
RTVSPost2010Prop44ColorIndex
 90
        5
102
RTVSPost2010Prop44ColorRGB
 90
      255
102
RTVSPost2010PropOp44
 70
     1
102
RTVSPost2010Prop45
280
     0
102
RTVSPost2010PropOp45
 70
     1
102
RTVSPost2010Prop46
 90
       50
102
RTVSPost2010PropOp46
 70
     1
102
RTVSPost2010Prop47
 90
       50
102
RTVSPost2010PropOp47
 70
     1
102
RTVSPost2010Prop48
 90
       50
102
RTVSPost2010PropOp48
 70
     1
102
RTVSPost2010Prop49
280
     0
102
RTVSPost2010PropOp49
 70
     1
102
RTVSPost2010Prop50
 90
       50
102
RTVSPost2010PropOp50
 70
     1
102
RTVSPost2010Prop51ColorIndex
 90
      256
102
RTVSPost2010Prop51ColorRGB
 90
-16777216
102
RTVSPost2010PropOp51
 70
     0
102
RTVSPost2010Prop52
140
1.0
102
RTVSPost2010PropOp52
 70
     0
102
RTVSPost2010Prop53
 90
        2
102
RTVSPost2010PropOp53
 70
     1
102
RTVSPost2010Prop54
  1
strokes_ogs.tif
102
RTVSPost2010PropOp54
 70
     1
102
RTVSPost2010Prop55
280
     0
102
RTVSPost2010PropOp55
 70
     1
102
RTVSPost2010Prop56
140
1.0
102
RTVSPost2010PropOp56
 70
     1
102
RTVSPost2010Prop57
140
1.0
102
RTVSPost2010PropOp57
 70
     1
102
RTVSPropertyOp0
 70
     1
102
RTVSPropertyOp1
 70
     1
102
RTVSPropertyOp2
 70
     1
102
RTVSPropertyOp3
 70
     1
102
RTVSPropertyOp4
 70
     1
102
RTVSPropertyOp5
 70
     1
102
RTVSPropertyOp6
 70
     1
102
RTVSPropertyOp7
 70
     1
102
RTVSPropertyOp8
 70
     1
102
RTVSPropertyOp9
 70
     1
102
RTVSPropertyOp10
 70
     1
102
RTVSPropertyOp11
 70
     1
102
RTVSPropertyOp12
 70
     1
102
RTVSPropertyOp13
 70
     1
102
RTVSPropertyOp14
 70
     1
102
RTVSPropertyOp15
 70
     1
102
RTVSPropertyOp16
 70
     1
102
RTVSPropertyOp17
 70
     1
102
RTVSPropertyOp18
 70
     1
102
RTVSPropertyOp19
 70
     1
102
RTVSPropertyOp20
 70
     1
102
RTVSPropertyOp21
 70
     1
102
RTVSPropertyOp22
 70
     1
102
RTVSPropertyOp23
 70
     1
102
RTVSPropertyOp24
 70
     1
102
RTVSPropertyOp25
 70
     1
102
RTVSPropertyOp26
 70
     1
102
RTVSPropertyOp27
 70
     1
102
RTVSPropertyOp28
 70
     1
102
RTVSPropertyOp29
 70
     1
102
RTVSPropertyOp30
 70
     1
102
RTVSPropertyOp31
 70
     1
102
RTVSPropertyOp32
 70
     1
102
RTVSPropertyOp33
 70
     1
102
RTVSPropertyOp34
 70
     1
102
RTVSPropertyOp35
 70
     1
102
RTVSPropertyOp36
 70
     1
102
RTVSPropertyOp37
 70
     1
102
RTVSPropertyOp38
 70
     1
102
RTVSPropertyOp39
 70
     1
102
RTVSPropertyOp40
 70
     1
102
RTVSPropertyOp41
 70
     1
102
RTVSPropertyOp42
 70
     1
102
RTVSPropertyOp43
 70
     1
102
RTVSPropertyOp44
 70
     1
102
RTVSPropertyOp45
 70
     1
102
RTVSPropertyOp46
 70
     1
102
RTVSPropertyOp47
 70
     1
102
RTVSPropertyOp48
 70
     1
102
RTVSPropertyOp49
 70
     1
102
RTVSPropertyOp50
 70
     1
102
RTVSPropertyOp51
 70
     0
102
RTVSPropertyOp52
 70
     0
102
RTVSPropertyOp53
 70
     1
102
RTVSPropertyOp54
 70
     1
102
RTVSPropertyOp55
 70
     1
102
RTVSPropertyOp56
 70
     1
102
RTVSPropertyOp57
 70
     1
102
RTVSPropertyOp58
 70
     1
102
RTVSPropertyOp59
 70
     1
102
RTVSPropertyOp60
 70
     1
102
RTVSPropertyOp61
 70
     1
102
RTVSPropertyOp62
 70
     1
  0
XRECORD
  5
1AA85
102
{ACAD_REACTORS
330
1AA84
102
}
330
1AA84
100
AcDbXrecord
280
     1
102
RTVSPost2010Prop28
280
     0
102
RTVSPost2010PropOp28
 70
     0
102
RTVSPost2010Prop29
280
     1
102
RTVSPost2010PropOp29
 70
     0
102
RTVSPost2010Prop30
280
     1
102
RTVSPost2010PropOp30
 70
     0
102
RTVSPost2010Prop31
280
     0
102
RTVSPost2010PropOp31
 70
     0
102
RTVSPost2010Prop32
280
     0
102
RTVSPost2010PropOp32
 70
     0
102
RTVSPost2010Prop33
280
     0
102
RTVSPost2010PropOp33
 70
     0
102
RTVSPost2010Prop34
280
     0
102
RTVSPost2010PropOp34
 70
     0
102
RTVSPost2010Prop35
280
     0
102
RTVSPost2010PropOp35
 70
     0
102
RTVSPost2010Prop36
280
     0
102
RTVSPost2010PropOp36
 70
     0
102
RTVSPost2010Prop37
 90
       50
102
RTVSPost2010PropOp37
 70
     0
102
RTVSPost2010Prop38
140
0.0
102
RTVSPost2010PropOp38
 70
     0
102
RTVSPost2010Prop39
140
1.0
102
RTVSPost2010PropOp39
 70
     0
102
RTVSPost2010Prop40
 90
        0
102
RTVSPost2010PropOp40
 70
     0
102
RTVSPost2010Prop41ColorIndex
 90
       18
102
RTVSPost2010Prop41ColorRGB
 90
        0
102
RTVSPost2010PropOp41
 70
     0
102
RTVSPost2010Prop42
 90
       50
102
RTVSPost2010PropOp42
 70
     0
102
RTVSPost2010Prop43
 90
        3
102
RTVSPost2010PropOp43
 70
     0
102
RTVSPost2010Prop44ColorIndex
 90
        5
102
RTVSPost2010Prop44ColorRGB
 90
      255
102
RTVSPost2010PropOp44
 70
     0
102
RTVSPost2010Prop45
280
     0
102
RTVSPost2010PropOp45
 70
     0
102
RTVSPost2010Prop46
 90
       50
102
RTVSPost2010PropOp46
 70
     0
102
RTVSPost2010Prop47
 90
       50
102
RTVSPost2010PropOp47
 70
     0
102
RTVSPost2010Prop48
 90
       50
102
RTVSPost2010PropOp48
 70
     0
102
RTVSPost2010Prop49
280
     0
102
RTVSPost2010PropOp49
 70
     0
102
RTVSPost2010Prop50
 90
       50
102
RTVSPost2010PropOp50
 70
     0
102
RTVSPost2010Prop51ColorIndex
 90
      256
102
RTVSPost2010Prop51ColorRGB
 90
-16777216
102
RTVSPost2010PropOp51
 70
     0
102
RTVSPost2010Prop52
140
1.0
102
RTVSPost2010PropOp52
 70
     0
102
RTVSPost2010Prop53
 90
        2
102
RTVSPost2010PropOp53
 70
     0
102
RTVSPost2010Prop54
  1
strokes_ogs.tif
102
RTVSPost2010PropOp54
 70
     0
102
RTVSPost2010Prop55
280
     0
102
RTVSPost2010PropOp55
 70
     0
102
RTVSPost2010Prop56
140
1.0
102
RTVSPost2010PropOp56
 70
     0
102
RTVSPost2010Prop57
140
1.0
102
RTVSPost2010PropOp57
 70
     0
102
RTVSPropertyOp0
 70
     0
102
RTVSPropertyOp1
 70
     0
102
RTVSPropertyOp2
 70
     0
102
RTVSPropertyOp3
 70
     0
102
RTVSPropertyOp4
 70
     0
102
RTVSPropertyOp5
 70
     0
102
RTVSPropertyOp6
 70
     0
102
RTVSPropertyOp7
 70
     0
102
RTVSPropertyOp8
 70
     0
102
RTVSPropertyOp9
 70
     0
102
RTVSPropertyOp10
 70
     0
102
RTVSPropertyOp11
 70
     0
102
RTVSPropertyOp12
 70
     0
102
RTVSPropertyOp13
 70
     0
102
RTVSPropertyOp14
 70
     2
102
RTVSPropertyOp15
 70
     0
102
RTVSPropertyOp16
 70
     0
102
RTVSPropertyOp17
 70
     0
102
RTVSPropertyOp18
 70
     0
102
RTVSPropertyOp19
 70
     0
102
RTVSPropertyOp20
 70
     0
102
RTVSPropertyOp21
 70
     0
102
RTVSPropertyOp22
 70
     0
102
RTVSPropertyOp23
 70
     0
102
RTVSPropertyOp24
 70
     0
102
RTVSPropertyOp25
 70
     0
102
RTVSPropertyOp26
 70
     0
102
RTVSPropertyOp27
 70
     0
102
RTVSPropertyOp28
 70
     0
102
RTVSPropertyOp29
 70
     0
102
RTVSPropertyOp30
 70
     0
102
RTVSPropertyOp31
 70
     0
102
RTVSPropertyOp32
 70
     0
102
RTVSPropertyOp33
 70
     0
102
RTVSPropertyOp34
 70
     0
102
RTVSPropertyOp35
 70
     0
102
RTVSPropertyOp36
 70
     0
102
RTVSPropertyOp37
 70
     0
102
RTVSPropertyOp38
 70
     0
102
RTVSPropertyOp39
 70
     0
102
RTVSPropertyOp40
 70
     0
102
RTVSPropertyOp41
 70
     0
102
RTVSPropertyOp42
 70
     0
102
RTVSPropertyOp43
 70
     0
102
RTVSPropertyOp44
 70
     0
102
RTVSPropertyOp45
 70
     0
102
RTVSPropertyOp46
 70
     0
102
RTVSPropertyOp47
 70
     0
102
RTVSPropertyOp48
 70
     0
102
RTVSPropertyOp49
 70
     0
102
RTVSPropertyOp50
 70
     0
102
RTVSPropertyOp51
 70
     0
102
RTVSPropertyOp52
 70
     0
102
RTVSPropertyOp53
 70
     0
102
RTVSPropertyOp54
 70
     0
102
RTVSPropertyOp55
 70
     0
102
RTVSPropertyOp56
 70
     0
102
RTVSPropertyOp57
 70
     0
102
RTVSPropertyOp58
 70
     0
102
RTVSPropertyOp59
 70
     0
102
RTVSPropertyOp60
 70
     0
102
RTVSPropertyOp61
 70
     0
102
RTVSPropertyOp62
 70
     0
  0
XRECORD
  5
1AA70
102
{ACAD_REACTORS
330
1AA6F
102
}
330
1AA6F
100
AcDbXrecord
280
     1
102
RTVSPost2010Prop28
280
     0
102
RTVSPost2010PropOp28
 70
     1
102
RTVSPost2010Prop29
280
     1
102
RTVSPost2010PropOp29
 70
     1
102
RTVSPost2010Prop30
280
     1
102
RTVSPost2010PropOp30
 70
     1
102
RTVSPost2010Prop31
280
     0
102
RTVSPost2010PropOp31
 70
     1
102
RTVSPost2010Prop32
280
     0
102
RTVSPost2010PropOp32
 70
     1
102
RTVSPost2010Prop33
280
     0
102
RTVSPost2010PropOp33
 70
     1
102
RTVSPost2010Prop34
280
     0
102
RTVSPost2010PropOp34
 70
     1
102
RTVSPost2010Prop35
280
     0
102
RTVSPost2010PropOp35
 70
     1
102
RTVSPost2010Prop36
280
     0
102
RTVSPost2010PropOp36
 70
     1
102
RTVSPost2010Prop37
 90
       50
102
RTVSPost2010PropOp37
 70
     1
102
RTVSPost2010Prop38
140
0.0
102
RTVSPost2010PropOp38
 70
     1
102
RTVSPost2010Prop39
140
1.0
102
RTVSPost2010PropOp39
 70
     1
102
RTVSPost2010Prop40
 90
        0
102
RTVSPost2010PropOp40
 70
     1
102
RTVSPost2010Prop41ColorIndex
 90
       18
102
RTVSPost2010Prop41ColorRGB
 90
        0
102
RTVSPost2010PropOp41
 70
     1
102
RTVSPost2010Prop42
 90
       50
102
RTVSPost2010PropOp42
 70
     1
102
RTVSPost2010Prop43
 90
        3
102
RTVSPost2010PropOp43
 70
     1
102
RTVSPost2010Prop44ColorIndex
 90
        5
102
RTVSPost2010Prop44ColorRGB
 90
      255
102
RTVSPost2010PropOp44
 70
     1
102
RTVSPost2010Prop45
280
     0
102
RTVSPost2010PropOp45
 70
     1
102
RTVSPost2010Prop46
 90
       50
102
RTVSPost2010PropOp46
 70
     1
102
RTVSPost2010Prop47
 90
       50
102
RTVSPost2010PropOp47
 70
     1
102
RTVSPost2010Prop48
 90
       50
102
RTVSPost2010PropOp48
 70
     1
102
RTVSPost2010Prop49
280
     0
102
RTVSPost2010PropOp49
 70
     1
102
RTVSPost2010Prop50
 90
       50
102
RTVSPost2010PropOp50
 70
     1
102
RTVSPost2010Prop51ColorIndex
 90
      256
102
RTVSPost2010Prop51ColorRGB
 90
-16777216
102
RTVSPost2010PropOp51
 70
     0
102
RTVSPost2010Prop52
140
1.0
102
RTVSPost2010PropOp52
 70
     0
102
RTVSPost2010Prop53
 90
        2
102
RTVSPost2010PropOp53
 70
     1
102
RTVSPost2010Prop54
  1
strokes_ogs.tif
102
RTVSPost2010PropOp54
 70
     1
102
RTVSPost2010Prop55
280
     0
102
RTVSPost2010PropOp55
 70
     1
102
RTVSPost2010Prop56
140
1.0
102
RTVSPost2010PropOp56
 70
     1
102
RTVSPost2010Prop57
140
1.0
102
RTVSPost2010PropOp57
 70
     1
102
RTVSPropertyOp0
 70
     1
102
RTVSPropertyOp1
 70
     1
102
RTVSPropertyOp2
 70
     1
102
RTVSPropertyOp3
 70
     1
102
RTVSPropertyOp4
 70
     1
102
RTVSPropertyOp5
 70
     1
102
RTVSPropertyOp6
 70
     1
102
RTVSPropertyOp7
 70
     1
102
RTVSPropertyOp8
 70
     1
102
RTVSPropertyOp9
 70
     1
102
RTVSPropertyOp10
 70
     1
102
RTVSPropertyOp11
 70
     1
102
RTVSPropertyOp12
 70
     1
102
RTVSPropertyOp13
 70
     1
102
RTVSPropertyOp14
 70
     1
102
RTVSPropertyOp15
 70
     1
102
RTVSPropertyOp16
 70
     1
102
RTVSPropertyOp17
 70
     1
102
RTVSPropertyOp18
 70
     1
102
RTVSPropertyOp19
 70
     1
102
RTVSPropertyOp20
 70
     1
102
RTVSPropertyOp21
 70
     1
102
RTVSPropertyOp22
 70
     1
102
RTVSPropertyOp23
 70
     1
102
RTVSPropertyOp24
 70
     1
102
RTVSPropertyOp25
 70
     1
102
RTVSPropertyOp26
 70
     1
102
RTVSPropertyOp27
 70
     1
102
RTVSPropertyOp28
 70
     1
102
RTVSPropertyOp29
 70
     1
102
RTVSPropertyOp30
 70
     1
102
RTVSPropertyOp31
 70
     1
102
RTVSPropertyOp32
 70
     1
102
RTVSPropertyOp33
 70
     1
102
RTVSPropertyOp34
 70
     1
102
RTVSPropertyOp35
 70
     1
102
RTVSPropertyOp36
 70
     1
102
RTVSPropertyOp37
 70
     1
102
RTVSPropertyOp38
 70
     1
102
RTVSPropertyOp39
 70
     1
102
RTVSPropertyOp40
 70
     1
102
RTVSPropertyOp41
 70
     1
102
RTVSPropertyOp42
 70
     1
102
RTVSPropertyOp43
 70
     1
102
RTVSPropertyOp44
 70
     1
102
RTVSPropertyOp45
 70
     1
102
RTVSPropertyOp46
 70
     1
102
RTVSPropertyOp47
 70
     1
102
RTVSPropertyOp48
 70
     1
102
RTVSPropertyOp49
 70
     1
102
RTVSPropertyOp50
 70
     1
102
RTVSPropertyOp51
 70
     0
102
RTVSPropertyOp52
 70
     0
102
RTVSPropertyOp53
 70
     1
102
RTVSPropertyOp54
 70
     1
102
RTVSPropertyOp55
 70
     1
102
RTVSPropertyOp56
 70
     1
102
RTVSPropertyOp57
 70
     1
102
RTVSPropertyOp58
 70
     1
102
RTVSPropertyOp59
 70
     1
102
RTVSPropertyOp60
 70
     1
102
RTVSPropertyOp61
 70
     1
102
RTVSPropertyOp62
 70
     1
  0
XRECORD
  5
1AA87
102
{ACAD_REACTORS
330
1AA86
102
}
330
1AA86
100
AcDbXrecord
280
     1
102
RTVSPost2010Prop28
280
     0
102
RTVSPost2010PropOp28
 70
     0
102
RTVSPost2010Prop29
280
     1
102
RTVSPost2010PropOp29
 70
     0
102
RTVSPost2010Prop30
280
     1
102
RTVSPost2010PropOp30
 70
     0
102
RTVSPost2010Prop31
280
     0
102
RTVSPost2010PropOp31
 70
     0
102
RTVSPost2010Prop32
280
     0
102
RTVSPost2010PropOp32
 70
     0
102
RTVSPost2010Prop33
280
     0
102
RTVSPost2010PropOp33
 70
     0
102
RTVSPost2010Prop34
280
     0
102
RTVSPost2010PropOp34
 70
     0
102
RTVSPost2010Prop35
280
     0
102
RTVSPost2010PropOp35
 70
     0
102
RTVSPost2010Prop36
280
     0
102
RTVSPost2010PropOp36
 70
     0
102
RTVSPost2010Prop37
 90
       50
102
RTVSPost2010PropOp37
 70
     0
102
RTVSPost2010Prop38
140
0.0
102
RTVSPost2010PropOp38
 70
     0
102
RTVSPost2010Prop39
140
1.0
102
RTVSPost2010PropOp39
 70
     0
102
RTVSPost2010Prop40
 90
        0
102
RTVSPost2010PropOp40
 70
     0
102
RTVSPost2010Prop41ColorIndex
 90
       18
102
RTVSPost2010Prop41ColorRGB
 90
        0
102
RTVSPost2010PropOp41
 70
     0
102
RTVSPost2010Prop42
 90
       50
102
RTVSPost2010PropOp42
 70
     0
102
RTVSPost2010Prop43
 90
        3
102
RTVSPost2010PropOp43
 70
     0
102
RTVSPost2010Prop44ColorIndex
 90
        5
102
RTVSPost2010Prop44ColorRGB
 90
      255
102
RTVSPost2010PropOp44
 70
     0
102
RTVSPost2010Prop45
280
     0
102
RTVSPost2010PropOp45
 70
     0
102
RTVSPost2010Prop46
 90
       50
102
RTVSPost2010PropOp46
 70
     0
102
RTVSPost2010Prop47
 90
       50
102
RTVSPost2010PropOp47
 70
     0
102
RTVSPost2010Prop48
 90
       50
102
RTVSPost2010PropOp48
 70
     0
102
RTVSPost2010Prop49
280
     0
102
RTVSPost2010PropOp49
 70
     0
102
RTVSPost2010Prop50
 90
       50
102
RTVSPost2010PropOp50
 70
     0
102
RTVSPost2010Prop51ColorIndex
 90
      256
102
RTVSPost2010Prop51ColorRGB
 90
-16777216
102
RTVSPost2010PropOp51
 70
     0
102
RTVSPost2010Prop52
140
1.0
102
RTVSPost2010PropOp52
 70
     0
102
RTVSPost2010Prop53
 90
        2
102
RTVSPost2010PropOp53
 70
     0
102
RTVSPost2010Prop54
  1
strokes_ogs.tif
102
RTVSPost2010PropOp54
 70
     0
102
RTVSPost2010Prop55
280
     0
102
RTVSPost2010PropOp55
 70
     0
102
RTVSPost2010Prop56
140
1.0
102
RTVSPost2010PropOp56
 70
     0
102
RTVSPost2010Prop57
140
1.0
102
RTVSPost2010PropOp57
 70
     0
102
RTVSPropertyOp0
 70
     0
102
RTVSPropertyOp1
 70
     0
102
RTVSPropertyOp2
 70
     0
102
RTVSPropertyOp3
 70
     0
102
RTVSPropertyOp4
 70
     0
102
RTVSPropertyOp5
 70
     0
102
RTVSPropertyOp6
 70
     0
102
RTVSPropertyOp7
 70
     0
102
RTVSPropertyOp8
 70
     0
102
RTVSPropertyOp9
 70
     0
102
RTVSPropertyOp10
 70
     0
102
RTVSPropertyOp11
 70
     0
102
RTVSPropertyOp12
 70
     0
102
RTVSPropertyOp13
 70
     0
102
RTVSPropertyOp14
 70
     2
102
RTVSPropertyOp15
 70
     0
102
RTVSPropertyOp16
 70
     0
102
RTVSPropertyOp17
 70
     0
102
RTVSPropertyOp18
 70
     0
102
RTVSPropertyOp19
 70
     0
102
RTVSPropertyOp20
 70
     0
102
RTVSPropertyOp21
 70
     0
102
RTVSPropertyOp22
 70
     0
102
RTVSPropertyOp23
 70
     0
102
RTVSPropertyOp24
 70
     0
102
RTVSPropertyOp25
 70
     0
102
RTVSPropertyOp26
 70
     0
102
RTVSPropertyOp27
 70
     0
102
RTVSPropertyOp28
 70
     0
102
RTVSPropertyOp29
 70
     0
102
RTVSPropertyOp30
 70
     0
102
RTVSPropertyOp31
 70
     0
102
RTVSPropertyOp32
 70
     0
102
RTVSPropertyOp33
 70
     0
102
RTVSPropertyOp34
 70
     0
102
RTVSPropertyOp35
 70
     0
102
RTVSPropertyOp36
 70
     0
102
RTVSPropertyOp37
 70
     0
102
RTVSPropertyOp38
 70
     0
102
RTVSPropertyOp39
 70
     0
102
RTVSPropertyOp40
 70
     0
102
RTVSPropertyOp41
 70
     0
102
RTVSPropertyOp42
 70
     0
102
RTVSPropertyOp43
 70
     0
102
RTVSPropertyOp44
 70
     0
102
RTVSPropertyOp45
 70
     0
102
RTVSPropertyOp46
 70
     0
102
RTVSPropertyOp47
 70
     0
102
RTVSPropertyOp48
 70
     0
102
RTVSPropertyOp49
 70
     0
102
RTVSPropertyOp50
 70
     0
102
RTVSPropertyOp51
 70
     0
102
RTVSPropertyOp52
 70
     0
102
RTVSPropertyOp53
 70
     0
102
RTVSPropertyOp54
 70
     0
102
RTVSPropertyOp55
 70
     0
102
RTVSPropertyOp56
 70
     0
102
RTVSPropertyOp57
 70
     0
102
RTVSPropertyOp58
 70
     0
102
RTVSPropertyOp59
 70
     0
102
RTVSPropertyOp60
 70
     0
102
RTVSPropertyOp61
 70
     0
102
RTVSPropertyOp62
 70
     0
  0
XRECORD
  5
1AA68
102
{ACAD_REACTORS
330
1AA67
102
}
330
1AA67
100
AcDbXrecord
280
     1
102
RTVSPost2010Prop28
280
     0
102
RTVSPost2010PropOp28
 70
     1
102
RTVSPost2010Prop29
280
     1
102
RTVSPost2010PropOp29
 70
     1
102
RTVSPost2010Prop30
280
     1
102
RTVSPost2010PropOp30
 70
     1
102
RTVSPost2010Prop31
280
     0
102
RTVSPost2010PropOp31
 70
     1
102
RTVSPost2010Prop32
280
     0
102
RTVSPost2010PropOp32
 70
     1
102
RTVSPost2010Prop33
280
     0
102
RTVSPost2010PropOp33
 70
     1
102
RTVSPost2010Prop34
280
     0
102
RTVSPost2010PropOp34
 70
     1
102
RTVSPost2010Prop35
280
     0
102
RTVSPost2010PropOp35
 70
     1
102
RTVSPost2010Prop36
280
     0
102
RTVSPost2010PropOp36
 70
     1
102
RTVSPost2010Prop37
 90
       50
102
RTVSPost2010PropOp37
 70
     1
102
RTVSPost2010Prop38
140
0.0
102
RTVSPost2010PropOp38
 70
     1
102
RTVSPost2010Prop39
140
1.0
102
RTVSPost2010PropOp39
 70
     1
102
RTVSPost2010Prop40
 90
        0
102
RTVSPost2010PropOp40
 70
     1
102
RTVSPost2010Prop41ColorIndex
 90
       18
102
RTVSPost2010Prop41ColorRGB
 90
        0
102
RTVSPost2010PropOp41
 70
     1
102
RTVSPost2010Prop42
 90
       50
102
RTVSPost2010PropOp42
 70
     1
102
RTVSPost2010Prop43
 90
        3
102
RTVSPost2010PropOp43
 70
     1
102
RTVSPost2010Prop44ColorIndex
 90
        5
102
RTVSPost2010Prop44ColorRGB
 90
      255
102
RTVSPost2010PropOp44
 70
     1
102
RTVSPost2010Prop45
280
     0
102
RTVSPost2010PropOp45
 70
     1
102
RTVSPost2010Prop46
 90
       50
102
RTVSPost2010PropOp46
 70
     1
102
RTVSPost2010Prop47
 90
       50
102
RTVSPost2010PropOp47
 70
     1
102
RTVSPost2010Prop48
 90
       50
102
RTVSPost2010PropOp48
 70
     1
102
RTVSPost2010Prop49
280
     0
102
RTVSPost2010PropOp49
 70
     1
102
RTVSPost2010Prop50
 90
       50
102
RTVSPost2010PropOp50
 70
     1
102
RTVSPost2010Prop51ColorIndex
 90
      256
102
RTVSPost2010Prop51ColorRGB
 90
-16777216
102
RTVSPost2010PropOp51
 70
     0
102
RTVSPost2010Prop52
140
1.0
102
RTVSPost2010PropOp52
 70
     0
102
RTVSPost2010Prop53
 90
        2
102
RTVSPost2010PropOp53
 70
     1
102
RTVSPost2010Prop54
  1
strokes_ogs.tif
102
RTVSPost2010PropOp54
 70
     1
102
RTVSPost2010Prop55
280
     0
102
RTVSPost2010PropOp55
 70
     1
102
RTVSPost2010Prop56
140
1.0
102
RTVSPost2010PropOp56
 70
     1
102
RTVSPost2010Prop57
140
1.0
102
RTVSPost2010PropOp57
 70
     1
102
RTVSPropertyOp0
 70
     1
102
RTVSPropertyOp1
 70
     1
102
RTVSPropertyOp2
 70
     1
102
RTVSPropertyOp3
 70
     1
102
RTVSPropertyOp4
 70
     1
102
RTVSPropertyOp5
 70
     1
102
RTVSPropertyOp6
 70
     1
102
RTVSPropertyOp7
 70
     1
102
RTVSPropertyOp8
 70
     1
102
RTVSPropertyOp9
 70
     1
102
RTVSPropertyOp10
 70
     1
102
RTVSPropertyOp11
 70
     1
102
RTVSPropertyOp12
 70
     1
102
RTVSPropertyOp13
 70
     1
102
RTVSPropertyOp14
 70
     1
102
RTVSPropertyOp15
 70
     1
102
RTVSPropertyOp16
 70
     1
102
RTVSPropertyOp17
 70
     1
102
RTVSPropertyOp18
 70
     1
102
RTVSPropertyOp19
 70
     1
102
RTVSPropertyOp20
 70
     1
102
RTVSPropertyOp21
 70
     1
102
RTVSPropertyOp22
 70
     1
102
RTVSPropertyOp23
 70
     1
102
RTVSPropertyOp24
 70
     1
102
RTVSPropertyOp25
 70
     1
102
RTVSPropertyOp26
 70
     1
102
RTVSPropertyOp27
 70
     1
102
RTVSPropertyOp28
 70
     1
102
RTVSPropertyOp29
 70
     1
102
RTVSPropertyOp30
 70
     1
102
RTVSPropertyOp31
 70
     1
102
RTVSPropertyOp32
 70
     1
102
RTVSPropertyOp33
 70
     1
102
RTVSPropertyOp34
 70
     1
102
RTVSPropertyOp35
 70
     1
102
RTVSPropertyOp36
 70
     1
102
RTVSPropertyOp37
 70
     1
102
RTVSPropertyOp38
 70
     1
102
RTVSPropertyOp39
 70
     1
102
RTVSPropertyOp40
 70
     1
102
RTVSPropertyOp41
 70
     1
102
RTVSPropertyOp42
 70
     1
102
RTVSPropertyOp43
 70
     1
102
RTVSPropertyOp44
 70
     1
102
RTVSPropertyOp45
 70
     1
102
RTVSPropertyOp46
 70
     1
102
RTVSPropertyOp47
 70
     1
102
RTVSPropertyOp48
 70
     1
102
RTVSPropertyOp49
 70
     1
102
RTVSPropertyOp50
 70
     1
102
RTVSPropertyOp51
 70
     0
102
RTVSPropertyOp52
 70
     0
102
RTVSPropertyOp53
 70
     1
102
RTVSPropertyOp54
 70
     1
102
RTVSPropertyOp55
 70
     1
102
RTVSPropertyOp56
 70
     1
102
RTVSPropertyOp57
 70
     1
102
RTVSPropertyOp58
 70
     1
102
RTVSPropertyOp59
 70
     1
102
RTVSPropertyOp60
 70
     1
102
RTVSPropertyOp61
 70
     1
102
RTVSPropertyOp62
 70
     1
  0
XRECORD
  5
1AA83
102
{ACAD_REACTORS
330
1AA82
102
}
330
1AA82
100
AcDbXrecord
280
     1
102
RTVSPost2010Prop28
280
     0
102
RTVSPost2010PropOp28
 70
     1
102
RTVSPost2010Prop29
280
     1
102
RTVSPost2010PropOp29
 70
     1
102
RTVSPost2010Prop30
280
     1
102
RTVSPost2010PropOp30
 70
     1
102
RTVSPost2010Prop31
280
     0
102
RTVSPost2010PropOp31
 70
     1
102
RTVSPost2010Prop32
280
     0
102
RTVSPost2010PropOp32
 70
     1
102
RTVSPost2010Prop33
280
     0
102
RTVSPost2010PropOp33
 70
     1
102
RTVSPost2010Prop34
280
     0
102
RTVSPost2010PropOp34
 70
     1
102
RTVSPost2010Prop35
280
     0
102
RTVSPost2010PropOp35
 70
     1
102
RTVSPost2010Prop36
280
     0
102
RTVSPost2010PropOp36
 70
     1
102
RTVSPost2010Prop37
 90
       50
102
RTVSPost2010PropOp37
 70
     1
102
RTVSPost2010Prop38
140
0.0
102
RTVSPost2010PropOp38
 70
     1
102
RTVSPost2010Prop39
140
1.0
102
RTVSPost2010PropOp39
 70
     1
102
RTVSPost2010Prop40
 90
        0
102
RTVSPost2010PropOp40
 70
     1
102
RTVSPost2010Prop41ColorIndex
 90
       18
102
RTVSPost2010Prop41ColorRGB
 90
        0
102
RTVSPost2010PropOp41
 70
     1
102
RTVSPost2010Prop42
 90
       50
102
RTVSPost2010PropOp42
 70
     1
102
RTVSPost2010Prop43
 90
        3
102
RTVSPost2010PropOp43
 70
     1
102
RTVSPost2010Prop44ColorIndex
 90
        5
102
RTVSPost2010Prop44ColorRGB
 90
      255
102
RTVSPost2010PropOp44
 70
     1
102
RTVSPost2010Prop45
280
     0
102
RTVSPost2010PropOp45
 70
     1
102
RTVSPost2010Prop46
 90
       50
102
RTVSPost2010PropOp46
 70
     1
102
RTVSPost2010Prop47
 90
       50
102
RTVSPost2010PropOp47
 70
     1
102
RTVSPost2010Prop48
 90
       50
102
RTVSPost2010PropOp48
 70
     1
102
RTVSPost2010Prop49
280
     0
102
RTVSPost2010PropOp49
 70
     1
102
RTVSPost2010Prop50
 90
       50
102
RTVSPost2010PropOp50
 70
     1
102
RTVSPost2010Prop51ColorIndex
 90
      256
102
RTVSPost2010Prop51ColorRGB
 90
-16777216
102
RTVSPost2010PropOp51
 70
     0
102
RTVSPost2010Prop52
140
1.0
102
RTVSPost2010PropOp52
 70
     0
102
RTVSPost2010Prop53
 90
        2
102
RTVSPost2010PropOp53
 70
     1
102
RTVSPost2010Prop54
  1
strokes_ogs.tif
102
RTVSPost2010PropOp54
 70
     1
102
RTVSPost2010Prop55
280
     0
102
RTVSPost2010PropOp55
 70
     1
102
RTVSPost2010Prop56
140
1.0
102
RTVSPost2010PropOp56
 70
     1
102
RTVSPost2010Prop57
140
1.0
102
RTVSPost2010PropOp57
 70
     1
102
RTVSPropertyOp0
 70
     1
102
RTVSPropertyOp1
 70
     1
102
RTVSPropertyOp2
 70
     1
102
RTVSPropertyOp3
 70
     1
102
RTVSPropertyOp4
 70
     1
102
RTVSPropertyOp5
 70
     1
102
RTVSPropertyOp6
 70
     1
102
RTVSPropertyOp7
 70
     1
102
RTVSPropertyOp8
 70
     1
102
RTVSPropertyOp9
 70
     1
102
RTVSPropertyOp10
 70
     1
102
RTVSPropertyOp11
 70
     1
102
RTVSPropertyOp12
 70
     1
102
RTVSPropertyOp13
 70
     1
102
RTVSPropertyOp14
 70
     1
102
RTVSPropertyOp15
 70
     1
102
RTVSPropertyOp16
 70
     1
102
RTVSPropertyOp17
 70
     1
102
RTVSPropertyOp18
 70
     1
102
RTVSPropertyOp19
 70
     1
102
RTVSPropertyOp20
 70
     1
102
RTVSPropertyOp21
 70
     1
102
RTVSPropertyOp22
 70
     1
102
RTVSPropertyOp23
 70
     1
102
RTVSPropertyOp24
 70
     1
102
RTVSPropertyOp25
 70
     1
102
RTVSPropertyOp26
 70
     1
102
RTVSPropertyOp27
 70
     1
102
RTVSPropertyOp28
 70
     1
102
RTVSPropertyOp29
 70
     1
102
RTVSPropertyOp30
 70
     1
102
RTVSPropertyOp31
 70
     1
102
RTVSPropertyOp32
 70
     1
102
RTVSPropertyOp33
 70
     1
102
RTVSPropertyOp34
 70
     1
102
RTVSPropertyOp35
 70
     1
102
RTVSPropertyOp36
 70
     1
102
RTVSPropertyOp37
 70
     1
102
RTVSPropertyOp38
 70
     1
102
RTVSPropertyOp39
 70
     1
102
RTVSPropertyOp40
 70
     1
102
RTVSPropertyOp41
 70
     1
102
RTVSPropertyOp42
 70
     1
102
RTVSPropertyOp43
 70
     1
102
RTVSPropertyOp44
 70
     1
102
RTVSPropertyOp45
 70
     1
102
RTVSPropertyOp46
 70
     1
102
RTVSPropertyOp47
 70
     1
102
RTVSPropertyOp48
 70
     1
102
RTVSPropertyOp49
 70
     1
102
RTVSPropertyOp50
 70
     1
102
RTVSPropertyOp51
 70
     0
102
RTVSPropertyOp52
 70
     0
102
RTVSPropertyOp53
 70
     1
102
RTVSPropertyOp54
 70
     1
102
RTVSPropertyOp55
 70
     1
102
RTVSPropertyOp56
 70
     1
102
RTVSPropertyOp57
 70
     1
102
RTVSPropertyOp58
 70
     1
102
RTVSPropertyOp59
 70
     1
102
RTVSPropertyOp60
 70
     1
102
RTVSPropertyOp61
 70
     1
102
RTVSPropertyOp62
 70
     1
  0
XRECORD
  5
1AA81
102
{ACAD_REACTORS
330
1AA80
102
}
330
1AA80
100
AcDbXrecord
280
     1
102
RTVSPost2010Prop28
280
     0
102
RTVSPost2010PropOp28
 70
     1
102
RTVSPost2010Prop29
280
     1
102
RTVSPost2010PropOp29
 70
     1
102
RTVSPost2010Prop30
280
     1
102
RTVSPost2010PropOp30
 70
     1
102
RTVSPost2010Prop31
280
     0
102
RTVSPost2010PropOp31
 70
     1
102
RTVSPost2010Prop32
280
     0
102
RTVSPost2010PropOp32
 70
     1
102
RTVSPost2010Prop33
280
     0
102
RTVSPost2010PropOp33
 70
     1
102
RTVSPost2010Prop34
280
     0
102
RTVSPost2010PropOp34
 70
     1
102
RTVSPost2010Prop35
280
     0
102
RTVSPost2010PropOp35
 70
     1
102
RTVSPost2010Prop36
280
     0
102
RTVSPost2010PropOp36
 70
     1
102
RTVSPost2010Prop37
 90
       50
102
RTVSPost2010PropOp37
 70
     1
102
RTVSPost2010Prop38
140
0.0
102
RTVSPost2010PropOp38
 70
     1
102
RTVSPost2010Prop39
140
1.0
102
RTVSPost2010PropOp39
 70
     1
102
RTVSPost2010Prop40
 90
        0
102
RTVSPost2010PropOp40
 70
     1
102
RTVSPost2010Prop41ColorIndex
 90
       18
102
RTVSPost2010Prop41ColorRGB
 90
        0
102
RTVSPost2010PropOp41
 70
     1
102
RTVSPost2010Prop42
 90
       50
102
RTVSPost2010PropOp42
 70
     1
102
RTVSPost2010Prop43
 90
        3
102
RTVSPost2010PropOp43
 70
     1
102
RTVSPost2010Prop44ColorIndex
 90
        5
102
RTVSPost2010Prop44ColorRGB
 90
      255
102
RTVSPost2010PropOp44
 70
     1
102
RTVSPost2010Prop45
280
     0
102
RTVSPost2010PropOp45
 70
     1
102
RTVSPost2010Prop46
 90
       50
102
RTVSPost2010PropOp46
 70
     1
102
RTVSPost2010Prop47
 90
       50
102
RTVSPost2010PropOp47
 70
     1
102
RTVSPost2010Prop48
 90
       50
102
RTVSPost2010PropOp48
 70
     1
102
RTVSPost2010Prop49
280
     0
102
RTVSPost2010PropOp49
 70
     1
102
RTVSPost2010Prop50
 90
       50
102
RTVSPost2010PropOp50
 70
     1
102
RTVSPost2010Prop51ColorIndex
 90
      256
102
RTVSPost2010Prop51ColorRGB
 90
-16777216
102
RTVSPost2010PropOp51
 70
     0
102
RTVSPost2010Prop52
140
1.0
102
RTVSPost2010PropOp52
 70
     0
102
RTVSPost2010Prop53
 90
        2
102
RTVSPost2010PropOp53
 70
     1
102
RTVSPost2010Prop54
  1
strokes_ogs.tif
102
RTVSPost2010PropOp54
 70
     1
102
RTVSPost2010Prop55
280
     0
102
RTVSPost2010PropOp55
 70
     1
102
RTVSPost2010Prop56
140
1.0
102
RTVSPost2010PropOp56
 70
     1
102
RTVSPost2010Prop57
140
1.0
102
RTVSPost2010PropOp57
 70
     1
102
RTVSPropertyOp0
 70
     1
102
RTVSPropertyOp1
 70
     1
102
RTVSPropertyOp2
 70
     1
102
RTVSPropertyOp3
 70
     1
102
RTVSPropertyOp4
 70
     1
102
RTVSPropertyOp5
 70
     1
102
RTVSPropertyOp6
 70
     1
102
RTVSPropertyOp7
 70
     1
102
RTVSPropertyOp8
 70
     1
102
RTVSPropertyOp9
 70
     1
102
RTVSPropertyOp10
 70
     1
102
RTVSPropertyOp11
 70
     1
102
RTVSPropertyOp12
 70
     1
102
RTVSPropertyOp13
 70
     1
102
RTVSPropertyOp14
 70
     1
102
RTVSPropertyOp15
 70
     1
102
RTVSPropertyOp16
 70
     1
102
RTVSPropertyOp17
 70
     1
102
RTVSPropertyOp18
 70
     1
102
RTVSPropertyOp19
 70
     1
102
RTVSPropertyOp20
 70
     1
102
RTVSPropertyOp21
 70
     1
102
RTVSPropertyOp22
 70
     1
102
RTVSPropertyOp23
 70
     1
102
RTVSPropertyOp24
 70
     1
102
RTVSPropertyOp25
 70
     1
102
RTVSPropertyOp26
 70
     1
102
RTVSPropertyOp27
 70
     1
102
RTVSPropertyOp28
 70
     1
102
RTVSPropertyOp29
 70
     1
102
RTVSPropertyOp30
 70
     1
102
RTVSPropertyOp31
 70
     1
102
RTVSPropertyOp32
 70
     1
102
RTVSPropertyOp33
 70
     1
102
RTVSPropertyOp34
 70
     1
102
RTVSPropertyOp35
 70
     1
102
RTVSPropertyOp36
 70
     1
102
RTVSPropertyOp37
 70
     1
102
RTVSPropertyOp38
 70
     1
102
RTVSPropertyOp39
 70
     1
102
RTVSPropertyOp40
 70
     1
102
RTVSPropertyOp41
 70
     1
102
RTVSPropertyOp42
 70
     1
102
RTVSPropertyOp43
 70
     1
102
RTVSPropertyOp44
 70
     1
102
RTVSPropertyOp45
 70
     1
102
RTVSPropertyOp46
 70
     1
102
RTVSPropertyOp47
 70
     1
102
RTVSPropertyOp48
 70
     1
102
RTVSPropertyOp49
 70
     1
102
RTVSPropertyOp50
 70
     1
102
RTVSPropertyOp51
 70
     0
102
RTVSPropertyOp52
 70
     0
102
RTVSPropertyOp53
 70
     1
102
RTVSPropertyOp54
 70
     1
102
RTVSPropertyOp55
 70
     1
102
RTVSPropertyOp56
 70
     1
102
RTVSPropertyOp57
 70
     1
102
RTVSPropertyOp58
 70
     1
102
RTVSPropertyOp59
 70
     1
102
RTVSPropertyOp60
 70
     1
102
RTVSPropertyOp61
 70
     1
102
RTVSPropertyOp62
 70
     1
  0
XRECORD
  5
1AA7B
102
{ACAD_REACTORS
330
1AA7A
102
}
330
1AA7A
100
AcDbXrecord
280
     1
102
RTVSPost2010Prop28
280
     0
102
RTVSPost2010PropOp28
 70
     1
102
RTVSPost2010Prop29
280
     1
102
RTVSPost2010PropOp29
 70
     1
102
RTVSPost2010Prop30
280
     1
102
RTVSPost2010PropOp30
 70
     1
102
RTVSPost2010Prop31
280
     0
102
RTVSPost2010PropOp31
 70
     1
102
RTVSPost2010Prop32
280
     0
102
RTVSPost2010PropOp32
 70
     1
102
RTVSPost2010Prop33
280
     0
102
RTVSPost2010PropOp33
 70
     1
102
RTVSPost2010Prop34
280
     0
102
RTVSPost2010PropOp34
 70
     1
102
RTVSPost2010Prop35
280
     0
102
RTVSPost2010PropOp35
 70
     1
102
RTVSPost2010Prop36
280
     0
102
RTVSPost2010PropOp36
 70
     1
102
RTVSPost2010Prop37
 90
       50
102
RTVSPost2010PropOp37
 70
     1
102
RTVSPost2010Prop38
140
0.0
102
RTVSPost2010PropOp38
 70
     1
102
RTVSPost2010Prop39
140
1.0
102
RTVSPost2010PropOp39
 70
     1
102
RTVSPost2010Prop40
 90
        0
102
RTVSPost2010PropOp40
 70
     1
102
RTVSPost2010Prop41ColorIndex
 90
       18
102
RTVSPost2010Prop41ColorRGB
 90
        0
102
RTVSPost2010PropOp41
 70
     1
102
RTVSPost2010Prop42
 90
       50
102
RTVSPost2010PropOp42
 70
     1
102
RTVSPost2010Prop43
 90
        3
102
RTVSPost2010PropOp43
 70
     1
102
RTVSPost2010Prop44ColorIndex
 90
        5
102
RTVSPost2010Prop44ColorRGB
 90
      255
102
RTVSPost2010PropOp44
 70
     1
102
RTVSPost2010Prop45
280
     0
102
RTVSPost2010PropOp45
 70
     1
102
RTVSPost2010Prop46
 90
       50
102
RTVSPost2010PropOp46
 70
     1
102
RTVSPost2010Prop47
 90
       50
102
RTVSPost2010PropOp47
 70
     1
102
RTVSPost2010Prop48
 90
       50
102
RTVSPost2010PropOp48
 70
     1
102
RTVSPost2010Prop49
280
     0
102
RTVSPost2010PropOp49
 70
     1
102
RTVSPost2010Prop50
 90
       50
102
RTVSPost2010PropOp50
 70
     1
102
RTVSPost2010Prop51ColorIndex
 90
      256
102
RTVSPost2010Prop51ColorRGB
 90
-16777216
102
RTVSPost2010PropOp51
 70
     0
102
RTVSPost2010Prop52
140
1.0
102
RTVSPost2010PropOp52
 70
     0
102
RTVSPost2010Prop53
 90
        2
102
RTVSPost2010PropOp53
 70
     1
102
RTVSPost2010Prop54
  1
strokes_ogs.tif
102
RTVSPost2010PropOp54
 70
     1
102
RTVSPost2010Prop55
280
     0
102
RTVSPost2010PropOp55
 70
     1
102
RTVSPost2010Prop56
140
1.0
102
RTVSPost2010PropOp56
 70
     1
102
RTVSPost2010Prop57
140
1.0
102
RTVSPost2010PropOp57
 70
     1
102
RTVSPropertyOp0
 70
     1
102
RTVSPropertyOp1
 70
     1
102
RTVSPropertyOp2
 70
     1
102
RTVSPropertyOp3
 70
     1
102
RTVSPropertyOp4
 70
     1
102
RTVSPropertyOp5
 70
     1
102
RTVSPropertyOp6
 70
     1
102
RTVSPropertyOp7
 70
     1
102
RTVSPropertyOp8
 70
     1
102
RTVSPropertyOp9
 70
     1
102
RTVSPropertyOp10
 70
     1
102
RTVSPropertyOp11
 70
     1
102
RTVSPropertyOp12
 70
     1
102
RTVSPropertyOp13
 70
     1
102
RTVSPropertyOp14
 70
     1
102
RTVSPropertyOp15
 70
     1
102
RTVSPropertyOp16
 70
     1
102
RTVSPropertyOp17
 70
     1
102
RTVSPropertyOp18
 70
     1
102
RTVSPropertyOp19
 70
     1
102
RTVSPropertyOp20
 70
     1
102
RTVSPropertyOp21
 70
     1
102
RTVSPropertyOp22
 70
     1
102
RTVSPropertyOp23
 70
     1
102
RTVSPropertyOp24
 70
     1
102
RTVSPropertyOp25
 70
     1
102
RTVSPropertyOp26
 70
     1
102
RTVSPropertyOp27
 70
     1
102
RTVSPropertyOp28
 70
     1
102
RTVSPropertyOp29
 70
     1
102
RTVSPropertyOp30
 70
     1
102
RTVSPropertyOp31
 70
     1
102
RTVSPropertyOp32
 70
     1
102
RTVSPropertyOp33
 70
     1
102
RTVSPropertyOp34
 70
     1
102
RTVSPropertyOp35
 70
     1
102
RTVSPropertyOp36
 70
     1
102
RTVSPropertyOp37
 70
     1
102
RTVSPropertyOp38
 70
     1
102
RTVSPropertyOp39
 70
     1
102
RTVSPropertyOp40
 70
     1
102
RTVSPropertyOp41
 70
     1
102
RTVSPropertyOp42
 70
     1
102
RTVSPropertyOp43
 70
     1
102
RTVSPropertyOp44
 70
     1
102
RTVSPropertyOp45
 70
     1
102
RTVSPropertyOp46
 70
     1
102
RTVSPropertyOp47
 70
     1
102
RTVSPropertyOp48
 70
     1
102
RTVSPropertyOp49
 70
     1
102
RTVSPropertyOp50
 70
     1
102
RTVSPropertyOp51
 70
     0
102
RTVSPropertyOp52
 70
     0
102
RTVSPropertyOp53
 70
     1
102
RTVSPropertyOp54
 70
     1
102
RTVSPropertyOp55
 70
     1
102
RTVSPropertyOp56
 70
     1
102
RTVSPropertyOp57
 70
     1
102
RTVSPropertyOp58
 70
     1
102
RTVSPropertyOp59
 70
     1
102
RTVSPropertyOp60
 70
     1
102
RTVSPropertyOp61
 70
     1
102
RTVSPropertyOp62
 70
     1
  0
XRECORD
  5
1AA7D
102
{ACAD_REACTORS
330
1AA7C
102
}
330
1AA7C
100
AcDbXrecord
280
     1
102
RTVSPost2010Prop28
280
     0
102
RTVSPost2010PropOp28
 70
     1
102
RTVSPost2010Prop29
280
     1
102
RTVSPost2010PropOp29
 70
     1
102
RTVSPost2010Prop30
280
     1
102
RTVSPost2010PropOp30
 70
     1
102
RTVSPost2010Prop31
280
     0
102
RTVSPost2010PropOp31
 70
     1
102
RTVSPost2010Prop32
280
     0
102
RTVSPost2010PropOp32
 70
     1
102
RTVSPost2010Prop33
280
     0
102
RTVSPost2010PropOp33
 70
     1
102
RTVSPost2010Prop34
280
     0
102
RTVSPost2010PropOp34
 70
     1
102
RTVSPost2010Prop35
280
     0
102
RTVSPost2010PropOp35
 70
     1
102
RTVSPost2010Prop36
280
     0
102
RTVSPost2010PropOp36
 70
     1
102
RTVSPost2010Prop37
 90
       50
102
RTVSPost2010PropOp37
 70
     1
102
RTVSPost2010Prop38
140
0.0
102
RTVSPost2010PropOp38
 70
     1
102
RTVSPost2010Prop39
140
1.0
102
RTVSPost2010PropOp39
 70
     1
102
RTVSPost2010Prop40
 90
        0
102
RTVSPost2010PropOp40
 70
     1
102
RTVSPost2010Prop41ColorIndex
 90
       18
102
RTVSPost2010Prop41ColorRGB
 90
        0
102
RTVSPost2010PropOp41
 70
     1
102
RTVSPost2010Prop42
 90
       50
102
RTVSPost2010PropOp42
 70
     1
102
RTVSPost2010Prop43
 90
        3
102
RTVSPost2010PropOp43
 70
     1
102
RTVSPost2010Prop44ColorIndex
 90
        5
102
RTVSPost2010Prop44ColorRGB
 90
      255
102
RTVSPost2010PropOp44
 70
     1
102
RTVSPost2010Prop45
280
     0
102
RTVSPost2010PropOp45
 70
     1
102
RTVSPost2010Prop46
 90
       50
102
RTVSPost2010PropOp46
 70
     1
102
RTVSPost2010Prop47
 90
       50
102
RTVSPost2010PropOp47
 70
     1
102
RTVSPost2010Prop48
 90
       50
102
RTVSPost2010PropOp48
 70
     1
102
RTVSPost2010Prop49
280
     0
102
RTVSPost2010PropOp49
 70
     1
102
RTVSPost2010Prop50
 90
       50
102
RTVSPost2010PropOp50
 70
     1
102
RTVSPost2010Prop51ColorIndex
 90
      256
102
RTVSPost2010Prop51ColorRGB
 90
-16777216
102
RTVSPost2010PropOp51
 70
     0
102
RTVSPost2010Prop52
140
1.0
102
RTVSPost2010PropOp52
 70
     0
102
RTVSPost2010Prop53
 90
        2
102
RTVSPost2010PropOp53
 70
     1
102
RTVSPost2010Prop54
  1
strokes_ogs.tif
102
RTVSPost2010PropOp54
 70
     1
102
RTVSPost2010Prop55
280
     0
102
RTVSPost2010PropOp55
 70
     1
102
RTVSPost2010Prop56
140
1.0
102
RTVSPost2010PropOp56
 70
     1
102
RTVSPost2010Prop57
140
1.0
102
RTVSPost2010PropOp57
 70
     1
102
RTVSPropertyOp0
 70
     1
102
RTVSPropertyOp1
 70
     1
102
RTVSPropertyOp2
 70
     1
102
RTVSPropertyOp3
 70
     1
102
RTVSPropertyOp4
 70
     1
102
RTVSPropertyOp5
 70
     1
102
RTVSPropertyOp6
 70
     1
102
RTVSPropertyOp7
 70
     1
102
RTVSPropertyOp8
 70
     1
102
RTVSPropertyOp9
 70
     1
102
RTVSPropertyOp10
 70
     1
102
RTVSPropertyOp11
 70
     1
102
RTVSPropertyOp12
 70
     1
102
RTVSPropertyOp13
 70
     1
102
RTVSPropertyOp14
 70
     1
102
RTVSPropertyOp15
 70
     1
102
RTVSPropertyOp16
 70
     1
102
RTVSPropertyOp17
 70
     1
102
RTVSPropertyOp18
 70
     1
102
RTVSPropertyOp19
 70
     1
102
RTVSPropertyOp20
 70
     1
102
RTVSPropertyOp21
 70
     1
102
RTVSPropertyOp22
 70
     1
102
RTVSPropertyOp23
 70
     1
102
RTVSPropertyOp24
 70
     1
102
RTVSPropertyOp25
 70
     1
102
RTVSPropertyOp26
 70
     1
102
RTVSPropertyOp27
 70
     1
102
RTVSPropertyOp28
 70
     1
102
RTVSPropertyOp29
 70
     1
102
RTVSPropertyOp30
 70
     1
102
RTVSPropertyOp31
 70
     1
102
RTVSPropertyOp32
 70
     1
102
RTVSPropertyOp33
 70
     1
102
RTVSPropertyOp34
 70
     1
102
RTVSPropertyOp35
 70
     1
102
RTVSPropertyOp36
 70
     1
102
RTVSPropertyOp37
 70
     1
102
RTVSPropertyOp38
 70
     1
102
RTVSPropertyOp39
 70
     1
102
RTVSPropertyOp40
 70
     1
102
RTVSPropertyOp41
 70
     1
102
RTVSPropertyOp42
 70
     1
102
RTVSPropertyOp43
 70
     1
102
RTVSPropertyOp44
 70
     1
102
RTVSPropertyOp45
 70
     1
102
RTVSPropertyOp46
 70
     1
102
RTVSPropertyOp47
 70
     1
102
RTVSPropertyOp48
 70
     1
102
RTVSPropertyOp49
 70
     1
102
RTVSPropertyOp50
 70
     1
102
RTVSPropertyOp51
 70
     0
102
RTVSPropertyOp52
 70
     0
102
RTVSPropertyOp53
 70
     1
102
RTVSPropertyOp54
 70
     1
102
RTVSPropertyOp55
 70
     1
102
RTVSPropertyOp56
 70
     1
102
RTVSPropertyOp57
 70
     1
102
RTVSPropertyOp58
 70
     1
102
RTVSPropertyOp59
 70
     1
102
RTVSPropertyOp60
 70
     1
102
RTVSPropertyOp61
 70
     1
102
RTVSPropertyOp62
 70
     1
  0
XRECORD
  5
1AA6E
102
{ACAD_REACTORS
330
1AA6D
102
}
330
1AA6D
100
AcDbXrecord
280
     1
102
RTVSPost2010Prop28
280
     0
102
RTVSPost2010PropOp28
 70
     1
102
RTVSPost2010Prop29
280
     1
102
RTVSPost2010PropOp29
 70
     1
102
RTVSPost2010Prop30
280
     1
102
RTVSPost2010PropOp30
 70
     1
102
RTVSPost2010Prop31
280
     0
102
RTVSPost2010PropOp31
 70
     1
102
RTVSPost2010Prop32
280
     0
102
RTVSPost2010PropOp32
 70
     1
102
RTVSPost2010Prop33
280
     0
102
RTVSPost2010PropOp33
 70
     1
102
RTVSPost2010Prop34
280
     0
102
RTVSPost2010PropOp34
 70
     1
102
RTVSPost2010Prop35
280
     0
102
RTVSPost2010PropOp35
 70
     1
102
RTVSPost2010Prop36
280
     0
102
RTVSPost2010PropOp36
 70
     1
102
RTVSPost2010Prop37
 90
       50
102
RTVSPost2010PropOp37
 70
     1
102
RTVSPost2010Prop38
140
0.0
102
RTVSPost2010PropOp38
 70
     1
102
RTVSPost2010Prop39
140
1.0
102
RTVSPost2010PropOp39
 70
     1
102
RTVSPost2010Prop40
 90
        0
102
RTVSPost2010PropOp40
 70
     1
102
RTVSPost2010Prop41ColorIndex
 90
       18
102
RTVSPost2010Prop41ColorRGB
 90
        0
102
RTVSPost2010PropOp41
 70
     1
102
RTVSPost2010Prop42
 90
       50
102
RTVSPost2010PropOp42
 70
     1
102
RTVSPost2010Prop43
 90
        3
102
RTVSPost2010PropOp43
 70
     1
102
RTVSPost2010Prop44ColorIndex
 90
        5
102
RTVSPost2010Prop44ColorRGB
 90
      255
102
RTVSPost2010PropOp44
 70
     1
102
RTVSPost2010Prop45
280
     0
102
RTVSPost2010PropOp45
 70
     1
102
RTVSPost2010Prop46
 90
       50
102
RTVSPost2010PropOp46
 70
     1
102
RTVSPost2010Prop47
 90
       50
102
RTVSPost2010PropOp47
 70
     1
102
RTVSPost2010Prop48
 90
       50
102
RTVSPost2010PropOp48
 70
     1
102
RTVSPost2010Prop49
280
     0
102
RTVSPost2010PropOp49
 70
     1
102
RTVSPost2010Prop50
 90
       50
102
RTVSPost2010PropOp50
 70
     1
102
RTVSPost2010Prop51ColorIndex
 90
      256
102
RTVSPost2010Prop51ColorRGB
 90
-16777216
102
RTVSPost2010PropOp51
 70
     0
102
RTVSPost2010Prop52
140
1.0
102
RTVSPost2010PropOp52
 70
     0
102
RTVSPost2010Prop53
 90
        2
102
RTVSPost2010PropOp53
 70
     1
102
RTVSPost2010Prop54
  1
strokes_ogs.tif
102
RTVSPost2010PropOp54
 70
     1
102
RTVSPost2010Prop55
280
     0
102
RTVSPost2010PropOp55
 70
     1
102
RTVSPost2010Prop56
140
1.0
102
RTVSPost2010PropOp56
 70
     1
102
RTVSPost2010Prop57
140
1.0
102
RTVSPost2010PropOp57
 70
     1
102
RTVSPropertyOp0
 70
     1
102
RTVSPropertyOp1
 70
     1
102
RTVSPropertyOp2
 70
     1
102
RTVSPropertyOp3
 70
     1
102
RTVSPropertyOp4
 70
     1
102
RTVSPropertyOp5
 70
     1
102
RTVSPropertyOp6
 70
     1
102
RTVSPropertyOp7
 70
     1
102
RTVSPropertyOp8
 70
     1
102
RTVSPropertyOp9
 70
     1
102
RTVSPropertyOp10
 70
     1
102
RTVSPropertyOp11
 70
     1
102
RTVSPropertyOp12
 70
     1
102
RTVSPropertyOp13
 70
     1
102
RTVSPropertyOp14
 70
     1
102
RTVSPropertyOp15
 70
     1
102
RTVSPropertyOp16
 70
     1
102
RTVSPropertyOp17
 70
     1
102
RTVSPropertyOp18
 70
     1
102
RTVSPropertyOp19
 70
     1
102
RTVSPropertyOp20
 70
     1
102
RTVSPropertyOp21
 70
     1
102
RTVSPropertyOp22
 70
     1
102
RTVSPropertyOp23
 70
     1
102
RTVSPropertyOp24
 70
     1
102
RTVSPropertyOp25
 70
     1
102
RTVSPropertyOp26
 70
     1
102
RTVSPropertyOp27
 70
     1
102
RTVSPropertyOp28
 70
     1
102
RTVSPropertyOp29
 70
     1
102
RTVSPropertyOp30
 70
     1
102
RTVSPropertyOp31
 70
     1
102
RTVSPropertyOp32
 70
     1
102
RTVSPropertyOp33
 70
     1
102
RTVSPropertyOp34
 70
     1
102
RTVSPropertyOp35
 70
     1
102
RTVSPropertyOp36
 70
     1
102
RTVSPropertyOp37
 70
     1
102
RTVSPropertyOp38
 70
     1
102
RTVSPropertyOp39
 70
     1
102
RTVSPropertyOp40
 70
     1
102
RTVSPropertyOp41
 70
     1
102
RTVSPropertyOp42
 70
     1
102
RTVSPropertyOp43
 70
     1
102
RTVSPropertyOp44
 70
     1
102
RTVSPropertyOp45
 70
     1
102
RTVSPropertyOp46
 70
     1
102
RTVSPropertyOp47
 70
     1
102
RTVSPropertyOp48
 70
     1
102
RTVSPropertyOp49
 70
     1
102
RTVSPropertyOp50
 70
     1
102
RTVSPropertyOp51
 70
     0
102
RTVSPropertyOp52
 70
     0
102
RTVSPropertyOp53
 70
     1
102
RTVSPropertyOp54
 70
     1
102
RTVSPropertyOp55
 70
     1
102
RTVSPropertyOp56
 70
     1
102
RTVSPropertyOp57
 70
     1
102
RTVSPropertyOp58
 70
     1
102
RTVSPropertyOp59
 70
     1
102
RTVSPropertyOp60
 70
     1
102
RTVSPropertyOp61
 70
     1
102
RTVSPropertyOp62
 70
     1
  0
XRECORD
  5
1AA77
102
{ACAD_REACTORS
330
1AA76
102
}
330
1AA76
100
AcDbXrecord
280
     1
102
RTVSPost2010Prop28
280
     0
102
RTVSPost2010PropOp28
 70
     1
102
RTVSPost2010Prop29
280
     1
102
RTVSPost2010PropOp29
 70
     1
102
RTVSPost2010Prop30
280
     1
102
RTVSPost2010PropOp30
 70
     1
102
RTVSPost2010Prop31
280
     0
102
RTVSPost2010PropOp31
 70
     1
102
RTVSPost2010Prop32
280
     0
102
RTVSPost2010PropOp32
 70
     1
102
RTVSPost2010Prop33
280
     0
102
RTVSPost2010PropOp33
 70
     1
102
RTVSPost2010Prop34
280
     0
102
RTVSPost2010PropOp34
 70
     1
102
RTVSPost2010Prop35
280
     0
102
RTVSPost2010PropOp35
 70
     1
102
RTVSPost2010Prop36
280
     0
102
RTVSPost2010PropOp36
 70
     1
102
RTVSPost2010Prop37
 90
       50
102
RTVSPost2010PropOp37
 70
     1
102
RTVSPost2010Prop38
140
0.0
102
RTVSPost2010PropOp38
 70
     1
102
RTVSPost2010Prop39
140
1.0
102
RTVSPost2010PropOp39
 70
     1
102
RTVSPost2010Prop40
 90
        0
102
RTVSPost2010PropOp40
 70
     1
102
RTVSPost2010Prop41ColorIndex
 90
       18
102
RTVSPost2010Prop41ColorRGB
 90
        0
102
RTVSPost2010PropOp41
 70
     1
102
RTVSPost2010Prop42
 90
       50
102
RTVSPost2010PropOp42
 70
     1
102
RTVSPost2010Prop43
 90
        3
102
RTVSPost2010PropOp43
 70
     1
102
RTVSPost2010Prop44ColorIndex
 90
        5
102
RTVSPost2010Prop44ColorRGB
 90
      255
102
RTVSPost2010PropOp44
 70
     1
102
RTVSPost2010Prop45
280
     0
102
RTVSPost2010PropOp45
 70
     1
102
RTVSPost2010Prop46
 90
       50
102
RTVSPost2010PropOp46
 70
     1
102
RTVSPost2010Prop47
 90
       50
102
RTVSPost2010PropOp47
 70
     1
102
RTVSPost2010Prop48
 90
       50
102
RTVSPost2010PropOp48
 70
     1
102
RTVSPost2010Prop49
280
     0
102
RTVSPost2010PropOp49
 70
     1
102
RTVSPost2010Prop50
 90
       50
102
RTVSPost2010PropOp50
 70
     1
102
RTVSPost2010Prop51ColorIndex
 90
      256
102
RTVSPost2010Prop51ColorRGB
 90
-16777216
102
RTVSPost2010PropOp51
 70
     0
102
RTVSPost2010Prop52
140
1.0
102
RTVSPost2010PropOp52
 70
     0
102
RTVSPost2010Prop53
 90
        2
102
RTVSPost2010PropOp53
 70
     1
102
RTVSPost2010Prop54
  1
strokes_ogs.tif
102
RTVSPost2010PropOp54
 70
     1
102
RTVSPost2010Prop55
280
     0
102
RTVSPost2010PropOp55
 70
     1
102
RTVSPost2010Prop56
140
1.0
102
RTVSPost2010PropOp56
 70
     1
102
RTVSPost2010Prop57
140
1.0
102
RTVSPost2010PropOp57
 70
     1
102
RTVSPropertyOp0
 70
     1
102
RTVSPropertyOp1
 70
     1
102
RTVSPropertyOp2
 70
     1
102
RTVSPropertyOp3
 70
     1
102
RTVSPropertyOp4
 70
     1
102
RTVSPropertyOp5
 70
     1
102
RTVSPropertyOp6
 70
     1
102
RTVSPropertyOp7
 70
     1
102
RTVSPropertyOp8
 70
     1
102
RTVSPropertyOp9
 70
     1
102
RTVSPropertyOp10
 70
     1
102
RTVSPropertyOp11
 70
     1
102
RTVSPropertyOp12
 70
     1
102
RTVSPropertyOp13
 70
     1
102
RTVSPropertyOp14
 70
     1
102
RTVSPropertyOp15
 70
     1
102
RTVSPropertyOp16
 70
     1
102
RTVSPropertyOp17
 70
     1
102
RTVSPropertyOp18
 70
     1
102
RTVSPropertyOp19
 70
     1
102
RTVSPropertyOp20
 70
     1
102
RTVSPropertyOp21
 70
     1
102
RTVSPropertyOp22
 70
     1
102
RTVSPropertyOp23
 70
     1
102
RTVSPropertyOp24
 70
     1
102
RTVSPropertyOp25
 70
     1
102
RTVSPropertyOp26
 70
     1
102
RTVSPropertyOp27
 70
     1
102
RTVSPropertyOp28
 70
     1
102
RTVSPropertyOp29
 70
     1
102
RTVSPropertyOp30
 70
     1
102
RTVSPropertyOp31
 70
     1
102
RTVSPropertyOp32
 70
     1
102
RTVSPropertyOp33
 70
     1
102
RTVSPropertyOp34
 70
     1
102
RTVSPropertyOp35
 70
     1
102
RTVSPropertyOp36
 70
     1
102
RTVSPropertyOp37
 70
     1
102
RTVSPropertyOp38
 70
     1
102
RTVSPropertyOp39
 70
     1
102
RTVSPropertyOp40
 70
     1
102
RTVSPropertyOp41
 70
     1
102
RTVSPropertyOp42
 70
     1
102
RTVSPropertyOp43
 70
     1
102
RTVSPropertyOp44
 70
     1
102
RTVSPropertyOp45
 70
     1
102
RTVSPropertyOp46
 70
     1
102
RTVSPropertyOp47
 70
     1
102
RTVSPropertyOp48
 70
     1
102
RTVSPropertyOp49
 70
     1
102
RTVSPropertyOp50
 70
     1
102
RTVSPropertyOp51
 70
     0
102
RTVSPropertyOp52
 70
     0
102
RTVSPropertyOp53
 70
     1
102
RTVSPropertyOp54
 70
     1
102
RTVSPropertyOp55
 70
     1
102
RTVSPropertyOp56
 70
     1
102
RTVSPropertyOp57
 70
     1
102
RTVSPropertyOp58
 70
     1
102
RTVSPropertyOp59
 70
     1
102
RTVSPropertyOp60
 70
     1
102
RTVSPropertyOp61
 70
     1
102
RTVSPropertyOp62
 70
     1
  0
XRECORD
  5
1AA7F
102
{ACAD_REACTORS
330
1AA7E
102
}
330
1AA7E
100
AcDbXrecord
280
     1
102
RTVSPost2010Prop28
280
     0
102
RTVSPost2010PropOp28
 70
     1
102
RTVSPost2010Prop29
280
     1
102
RTVSPost2010PropOp29
 70
     1
102
RTVSPost2010Prop30
280
     1
102
RTVSPost2010PropOp30
 70
     1
102
RTVSPost2010Prop31
280
     0
102
RTVSPost2010PropOp31
 70
     1
102
RTVSPost2010Prop32
280
     0
102
RTVSPost2010PropOp32
 70
     1
102
RTVSPost2010Prop33
280
     0
102
RTVSPost2010PropOp33
 70
     1
102
RTVSPost2010Prop34
280
     0
102
RTVSPost2010PropOp34
 70
     1
102
RTVSPost2010Prop35
280
     0
102
RTVSPost2010PropOp35
 70
     1
102
RTVSPost2010Prop36
280
     0
102
RTVSPost2010PropOp36
 70
     1
102
RTVSPost2010Prop37
 90
       50
102
RTVSPost2010PropOp37
 70
     1
102
RTVSPost2010Prop38
140
0.0
102
RTVSPost2010PropOp38
 70
     1
102
RTVSPost2010Prop39
140
1.0
102
RTVSPost2010PropOp39
 70
     1
102
RTVSPost2010Prop40
 90
        0
102
RTVSPost2010PropOp40
 70
     1
102
RTVSPost2010Prop41ColorIndex
 90
       18
102
RTVSPost2010Prop41ColorRGB
 90
        0
102
RTVSPost2010PropOp41
 70
     1
102
RTVSPost2010Prop42
 90
       50
102
RTVSPost2010PropOp42
 70
     1
102
RTVSPost2010Prop43
 90
        3
102
RTVSPost2010PropOp43
 70
     1
102
RTVSPost2010Prop44ColorIndex
 90
        5
102
RTVSPost2010Prop44ColorRGB
 90
      255
102
RTVSPost2010PropOp44
 70
     1
102
RTVSPost2010Prop45
280
     0
102
RTVSPost2010PropOp45
 70
     1
102
RTVSPost2010Prop46
 90
       50
102
RTVSPost2010PropOp46
 70
     1
102
RTVSPost2010Prop47
 90
       50
102
RTVSPost2010PropOp47
 70
     1
102
RTVSPost2010Prop48
 90
       50
102
RTVSPost2010PropOp48
 70
     1
102
RTVSPost2010Prop49
280
     0
102
RTVSPost2010PropOp49
 70
     1
102
RTVSPost2010Prop50
 90
       50
102
RTVSPost2010PropOp50
 70
     1
102
RTVSPost2010Prop51ColorIndex
 90
      256
102
RTVSPost2010Prop51ColorRGB
 90
-16777216
102
RTVSPost2010PropOp51
 70
     0
102
RTVSPost2010Prop52
140
1.0
102
RTVSPost2010PropOp52
 70
     0
102
RTVSPost2010Prop53
 90
        2
102
RTVSPost2010PropOp53
 70
     1
102
RTVSPost2010Prop54
  1
strokes_ogs.tif
102
RTVSPost2010PropOp54
 70
     1
102
RTVSPost2010Prop55
280
     0
102
RTVSPost2010PropOp55
 70
     1
102
RTVSPost2010Prop56
140
1.0
102
RTVSPost2010PropOp56
 70
     1
102
RTVSPost2010Prop57
140
1.0
102
RTVSPost2010PropOp57
 70
     1
102
RTVSPropertyOp0
 70
     1
102
RTVSPropertyOp1
 70
     1
102
RTVSPropertyOp2
 70
     1
102
RTVSPropertyOp3
 70
     1
102
RTVSPropertyOp4
 70
     1
102
RTVSPropertyOp5
 70
     1
102
RTVSPropertyOp6
 70
     1
102
RTVSPropertyOp7
 70
     1
102
RTVSPropertyOp8
 70
     1
102
RTVSPropertyOp9
 70
     1
102
RTVSPropertyOp10
 70
     1
102
RTVSPropertyOp11
 70
     1
102
RTVSPropertyOp12
 70
     1
102
RTVSPropertyOp13
 70
     1
102
RTVSPropertyOp14
 70
     1
102
RTVSPropertyOp15
 70
     1
102
RTVSPropertyOp16
 70
     1
102
RTVSPropertyOp17
 70
     1
102
RTVSPropertyOp18
 70
     1
102
RTVSPropertyOp19
 70
     1
102
RTVSPropertyOp20
 70
     1
102
RTVSPropertyOp21
 70
     1
102
RTVSPropertyOp22
 70
     1
102
RTVSPropertyOp23
 70
     1
102
RTVSPropertyOp24
 70
     1
102
RTVSPropertyOp25
 70
     1
102
RTVSPropertyOp26
 70
     1
102
RTVSPropertyOp27
 70
     1
102
RTVSPropertyOp28
 70
     1
102
RTVSPropertyOp29
 70
     1
102
RTVSPropertyOp30
 70
     1
102
RTVSPropertyOp31
 70
     1
102
RTVSPropertyOp32
 70
     1
102
RTVSPropertyOp33
 70
     1
102
RTVSPropertyOp34
 70
     1
102
RTVSPropertyOp35
 70
     1
102
RTVSPropertyOp36
 70
     1
102
RTVSPropertyOp37
 70
     1
102
RTVSPropertyOp38
 70
     1
102
RTVSPropertyOp39
 70
     1
102
RTVSPropertyOp40
 70
     1
102
RTVSPropertyOp41
 70
     1
102
RTVSPropertyOp42
 70
     1
102
RTVSPropertyOp43
 70
     1
102
RTVSPropertyOp44
 70
     1
102
RTVSPropertyOp45
 70
     1
102
RTVSPropertyOp46
 70
     1
102
RTVSPropertyOp47
 70
     1
102
RTVSPropertyOp48
 70
     1
102
RTVSPropertyOp49
 70
     1
102
RTVSPropertyOp50
 70
     1
102
RTVSPropertyOp51
 70
     0
102
RTVSPropertyOp52
 70
     0
102
RTVSPropertyOp53
 70
     1
102
RTVSPropertyOp54
 70
     1
102
RTVSPropertyOp55
 70
     1
102
RTVSPropertyOp56
 70
     1
102
RTVSPropertyOp57
 70
     1
102
RTVSPropertyOp58
 70
     1
102
RTVSPropertyOp59
 70
     1
102
RTVSPropertyOp60
 70
     1
102
RTVSPropertyOp61
 70
     1
102
RTVSPropertyOp62
 70
     1
  0
ENDSEC
  0
EOF
