  0
SECTION
  2
HEADER
  9
$ACADVER
  1
AC1018
  9
$ACADMAINTVER
 70
   104
  9
$DWGCODEPAGE
  3
ANSI_1252
  9
$LASTSAVEDBY
  1
Dennis
  9
$INSBASE
 10
0.0
 20
0.0
 30
0.0
  9
$EXTMIN
 10
3116.077451924796
 20
41905.23750193696
 30
-0.0015258207003583
  9
$EXTMAX
 10
4672.184716252628
 20
43288.52793051805
 30
0.0000000349246037
  9
$LIMMIN
 10
7745.235280411311
 20
45170.57018819427
  9
$LIMMAX
 10
8688.370072504804
 20
45763.99103806643
  9
$ORTHOMODE
 70
     0
  9
$REGENMODE
 70
     1
  9
$FILLMODE
 70
     1
  9
$QTEXTMODE
 70
     0
  9
$MIRRTEXT
 70
     0
  9
$LTSCALE
 40
5.0
  9
$ATTMODE
 70
     1
  9
$TEXTSIZE
 40
12.5
  9
$TRACEWID
 40
300.0
  9
$TEXTSTYLE
  7
5
  9
$CLAYER
  8
Text
  9
$CELTYPE
  6
BYLAYER
  9
$CECOLOR
 62
   256
  9
$CELTSCALE
 40
1.0
  9
$DISPSILH
 70
     0
  9
$DIMSCALE
 40
1.0
  9
$DIMASZ
 40
3.0
  9
$DIMEXO
 40
1.0
  9
$DIMDLI
 40
1.0
  9
$DIMRND
 40
0.0
  9
$DIMDLE
 40
0.0
  9
$DIMEXE
 40
1.0
  9
$DIMTP
 40
0.0
  9
$DIMTM
 40
0.0
  9
$DIMTXT
 40
2.5
  9
$DIMCEN
 40
0.09
  9
$DIMTSZ
 40
0.0
  9
$DIMTOL
 70
     0
  9
$DIMLIM
 70
     0
  9
$DIMTIH
 70
     0
  9
$DIMTOH
 70
     0
  9
$DIMSE1
 70
     0
  9
$DIMSE2
 70
     0
  9
$DIMTAD
 70
     1
  9
$DIMZIN
 70
     0
  9
$DIMBLK
  1

  9
$DIMASO
 70
     1
  9
$DIMSHO
 70
     1
  9
$DIMPOST
  1

  9
$DIMAPOST
  1

  9
$DIMALT
 70
     0
  9
$DIMALTD
 70
     2
  9
$DIMALTF
 40
25.4
  9
$DIMLFAC
 40
1.0
  9
$DIMTOFL
 70
     0
  9
$DIMTVP
 40
0.0
  9
$DIMTIX
 70
     0
  9
$DIMSOXD
 70
     0
  9
$DIMSAH
 70
     0
  9
$DIMBLK1
  1

  9
$DIMBLK2
  1

  9
$DIMSTYLE
  2
STANDARD
  9
$DIMCLRD
 70
     7
  9
$DIMCLRE
 70
     7
  9
$DIMCLRT
 70
     0
  9
$DIMTFAC
 40
1.0
  9
$DIMGAP
 40
1.0
  9
$DIMJUST
 70
     0
  9
$DIMSD1
 70
     0
  9
$DIMSD2
 70
     0
  9
$DIMTOLJ
 70
     1
  9
$DIMTZIN
 70
     0
  9
$DIMALTZ
 70
     0
  9
$DIMALTTZ
 70
     0
  9
$DIMUPT
 70
     0
  9
$DIMDEC
 70
     0
  9
$DIMTDEC
 70
     0
  9
$DIMALTU
 70
     2
  9
$DIMALTTD
 70
     2
  9
$DIMTXSTY
  7
1
  9
$DIMAUNIT
 70
     0
  9
$DIMADEC
 70
     0
  9
$DIMALTRND
 40
0.0
  9
$DIMAZIN
 70
     0
  9
$DIMDSEP
 70
    46
  9
$DIMATFIT
 70
     3
  9
$DIMFRAC
 70
     0
  9
$DIMLDRBLK
  1

  9
$DIMLUNIT
 70
     2
  9
$DIMLWD
 70
    -2
  9
$DIMLWE
 70
    -2
  9
$DIMTMOVE
 70
     0
  9
$LUNITS
 70
     2
  9
$LUPREC
 70
     1
  9
$SKETCHINC
 40
100.0
  9
$FILLETRAD
 40
0.0
  9
$AUNITS
 70
     0
  9
$AUPREC
 70
     1
  9
$MENU
  1
ACAD
  9
$ELEVATION
 40
0.0
  9
$PELEVATION
 40
0.0
  9
$THICKNESS
 40
0.0
  9
$LIMCHECK
 70
     0
  9
$CHAMFERA
 40
0.0
  9
$CHAMFERB
 40
0.0
  9
$CHAMFERC
 40
0.0
  9
$CHAMFERD
 40
0.0
  9
$SKPOLY
 70
     1
  9
$TDCREATE
 40
2452452.799518588
  9
$TDUCREATE
 40
2452452.257851922
  9
$TDUPDATE
 40
2457477.682733715
  9
$TDUUPDATE
 40
2457477.141067049
  9
$TDINDWG
 40
1.1280695255
  9
$TDUSRTIMER
 40
1.1280695255
  9
$USRTIMER
 70
     1
  9
$ANGBASE
 50
0.0
  9
$ANGDIR
 70
     0
  9
$PDMODE
 70
     0
  9
$PDSIZE
 40
10.0
  9
$PLINEWID
 40
0.0
  9
$SPLFRAME
 70
     0
  9
$SPLINETYPE
 70
     6
  9
$SPLINESEGS
 70
     8
  9
$HANDSEED
  5
7AB6
  9
$SURFTAB1
 70
     9
  9
$SURFTAB2
 70
     6
  9
$SURFTYPE
 70
     6
  9
$SURFU
 70
     6
  9
$SURFV
 70
     6
  9
$UCSBASE
  2

  9
$UCSNAME
  2

  9
$UCSORG
 10
0.0
 20
0.0
 30
0.0
  9
$UCSXDIR
 10
1.0
 20
0.0
 30
0.0
  9
$UCSYDIR
 10
0.0
 20
1.0
 30
0.0
  9
$UCSORTHOREF
  2

  9
$UCSORTHOVIEW
 70
     0
  9
$UCSORGTOP
 10
0.0
 20
0.0
 30
0.0
  9
$UCSORGBOTTOM
 10
0.0
 20
0.0
 30
0.0
  9
$UCSORGLEFT
 10
0.0
 20
0.0
 30
0.0
  9
$UCSORGRIGHT
 10
0.0
 20
0.0
 30
0.0
  9
$UCSORGFRONT
 10
0.0
 20
0.0
 30
0.0
  9
$UCSORGBACK
 10
0.0
 20
0.0
 30
0.0
  9
$PUCSBASE
  2

  9
$PUCSNAME
  2

  9
$PUCSORG
 10
0.0
 20
0.0
 30
0.0
  9
$PUCSXDIR
 10
1.0
 20
0.0
 30
0.0
  9
$PUCSYDIR
 10
0.0
 20
1.0
 30
0.0
  9
$PUCSORTHOREF
  2

  9
$PUCSORTHOVIEW
 70
     0
  9
$PUCSORGTOP
 10
0.0
 20
0.0
 30
0.0
  9
$PUCSORGBOTTOM
 10
0.0
 20
0.0
 30
0.0
  9
$PUCSORGLEFT
 10
0.0
 20
0.0
 30
0.0
  9
$PUCSORGRIGHT
 10
0.0
 20
0.0
 30
0.0
  9
$PUCSORGFRONT
 10
0.0
 20
0.0
 30
0.0
  9
$PUCSORGBACK
 10
0.0
 20
0.0
 30
0.0
  9
$USERI1
 70
    11
  9
$USERI2
 70
   110
  9
$USERI3
 70
     1
  9
$USERI4
 70
   250
  9
$USERI5
 70
   280
  9
$USERR1
 40
100.0
  9
$USERR2
 40
450.0
  9
$USERR3
 40
1.0
  9
$USERR4
 40
0.0
  9
$USERR5
 40
0.0
  9
$WORLDVIEW
 70
     0
  9
$SHADEDGE
 70
     3
  9
$SHADEDIF
 70
    70
  9
$TILEMODE
 70
     1
  9
$MAXACTVP
 70
    16
  9
$PINSBASE
 10
0.0
 20
0.0
 30
0.0
  9
$PLIMCHECK
 70
     0
  9
$PEXTMIN
 10
-8.620697353466766
 20
409.2057133997633
 30
0.0
  9
$PEXTMAX
 10
181.5578812649871
 20
685.808768873854
 30
0.0
  9
$PLIMMIN
 10
-21.31373901966532
 20
398.1466391030053
  9
$PLIMMAX
 10
188.6595886170535
 20
695.1784689369897
  9
$UNITMODE
 70
     0
  9
$VISRETAIN
 70
     0
  9
$PLINEGEN
 70
     0
  9
$PSLTSCALE
 70
     0
  9
$TREEDEPTH
 70
     0
  9
$CMLSTYLE
  2
STANDARD
  9
$CMLJUST
 70
     0
  9
$CMLSCALE
 40
1.0
  9
$PROXYGRAPHICS
 70
     1
  9
$MEASUREMENT
 70
     0
  9
$CELWEIGHT
370
    -1
  9
$ENDCAPS
280
     0
  9
$JOINSTYLE
280
     0
  9
$LWDISPLAY
290
     1
  9
$INSUNITS
 70
     0
  9
$HYPERLINKBASE
  1

  9
$STYLESHEET
  1
Hebel monochrome.ctb
  9
$XEDIT
290
     1
  9
$CEPSNTYPE
380
     0
  9
$PSTYLEMODE
290
     1
  9
$FINGERPRINTGUID
  2
{563ABA43-34A0-4C26-9C44-B165A630EF25}
  9
$VERSIONGUID
  2
{6B62529A-8A82-4AAA-95DF-2F8860515F80}
  9
$EXTNAMES
290
     1
  9
$PSVPSCALE
 40
0.0
  9
$OLESTARTUP
290
     0
  9
$SORTENTS
280
   127
  9
$INDEXCTL
280
     0
  9
$HIDETEXT
280
     0
  9
$XCLIPFRAME
290
     0
  9
$HALOGAP
280
     0
  9
$OBSCOLOR
 70
   257
  9
$OBSLTYPE
280
     0
  9
$INTERSECTIONDISPLAY
280
     0
  9
$INTERSECTIONCOLOR
 70
   257
  9
$DIMASSOC
280
     2
  9
$PROJECTNAME
  1

  0
ENDSEC
  0
SECTION
  2
CLASSES
  0
CLASS
  1
DICTIONARYVAR
  2
AcDbDictionaryVar
  3
ObjectDBX Classes
 90
        0
 91
        6
280
     0
281
     0
  0
CLASS
  1
RASTERVARIABLES
  2
AcDbRasterVariables
  3
ISM
 90
        0
 91
        1
280
     0
281
     0
  0
CLASS
  1
ACDBDICTIONARYWDFLT
  2
AcDbDictionaryWithDefault
  3
ObjectDBX Classes
 90
        0
 91
        1
280
     0
281
     0
  0
CLASS
  1
DIMASSOC
  2
AcDbDimAssoc
  3
"AcDbDimAssoc|Product Desc:     AcDim ARX App For Dimension|Company:          Autodesk, Inc.|WEB Address:      www.autodesk.com"
 90
        0
 91
        0
280
     0
281
     0
  0
CLASS
  1
MATERIAL
  2
AcDbMaterial
  3
ObjectDBX Classes
 90
     1153
 91
        3
280
     0
281
     0
  0
CLASS
  1
VISUALSTYLE
  2
AcDbVisualStyle
  3
ObjectDBX Classes
 90
     4095
 91
       26
280
     0
281
     0
  0
CLASS
  1
TABLESTYLE
  2
AcDbTableStyle
  3
ObjectDBX Classes
 90
     4095
 91
        1
280
     0
281
     0
  0
CLASS
  1
SCALE
  2
AcDbScale
  3
ObjectDBX Classes
 90
     1153
 91
       33
280
     0
281
     0
  0
CLASS
  1
MLEADERSTYLE
  2
AcDbMLeaderStyle
  3
ACDB_MLEADERSTYLE_CLASS
 90
     4095
 91
        1
280
     0
281
     0
  0
CLASS
  1
EXACXREFPANELOBJECT
  2
ExAcXREFPanelObject
  3
EXAC_ESW
 90
     1025
 91
        1
280
     0
281
     0
  0
CLASS
  1
NPOCOLLECTION
  2
AcDbImpNonPersistentObjectsCollection
  3
ObjectDBX Classes
 90
     1153
 91
        1
280
     0
281
     0
  0
CLASS
  1
CELLSTYLEMAP
  2
AcDbCellStyleMap
  3
ObjectDBX Classes
 90
     1152
 91
        3
280
     0
281
     0
  0
CLASS
  1
IMAGE
  2
AcDbRasterImage
  3
ISM
 90
     2175
 91
        4
280
     0
281
     1
  0
CLASS
  1
IMAGEDEF_REACTOR
  2
AcDbRasterImageDefReactor
  3
ISM
 90
        1
 91
        4
280
     0
281
     0
  0
CLASS
  1
SORTENTSTABLE
  2
AcDbSortentsTable
  3
ObjectDBX Classes
 90
        0
 91
        5
280
     0
281
     0
  0
CLASS
  1
IMAGEDEF
  2
AcDbRasterImageDef
  3
ISM
 90
        0
 91
        4
280
     0
281
     0
  0
CLASS
  1
AEC_REFEDIT_STATUS_TRACKER
  2
AecDbRefEditStatusTracker
  3
AecArchBase50|Product Desc: Autodesk Architectural Desktop 2007 |Company: Autodesk,Inc. |WEB Address: www.autodesk.com
 90
      129
 91
        0
280
     0
281
     0
  0
CLASS
  1
PLOTSETTINGS
  2
AcDbPlotSettings
  3
ObjectDBX Classes
 90
        0
 91
        1
280
     0
281
     0
  0
CLASS
  1
ACDBSECTIONVIEWSTYLE
  2
AcDbSectionViewStyle
  3
ObjectDBX Classes
 90
     1025
 91
        1
280
     0
281
     0
  0
CLASS
  1
ACDBDETAILVIEWSTYLE
  2
AcDbDetailViewStyle
  3
ObjectDBX Classes
 90
     1025
 91
        1
280
     0
281
     0
  0
ENDSEC
  0
SECTION
  2
TABLES
  0
TABLE
  2
VPORT
  5
55B
102
{ACAD_XDICTIONARY
360
2FC5
102
}
330
0
100
AcDbSymbolTable
 70
     1
  0
VPORT
  5
2F34
330
55B
100
AcDbSymbolTableRecord
100
AcDbViewportTableRecord
  2
*Active
 70
     0
 10
0.0
 20
0.0
 11
1.0
 21
1.0
 12
-19595.95121178635
 22
8528.941432810851
 13
0.0
 23
0.0
 14
1.0
 24
1.0
 15
1900.0
 25
1900.0
 16
0.0
 26
0.0
 36
1.0
 17
23187.54216236222
 27
34067.94128341666
 37
1200.0
 40
1393.931124185557
 41
1.500641848523748
 42
50.0
 43
0.0
 44
0.0
 50
0.0
 51
0.0
 71
     0
 72
 20000
 73
     1
 74
     0
 75
     0
 76
     0
 77
     0
 78
     1
281
     0
 65
     1
110
0.0
120
0.0
130
0.0
111
1.0
121
0.0
131
0.0
112
0.0
122
1.0
132
0.0
 79
     0
146
0.0
1001
ACAD_NAV_VCDISPLAY
1070
     3
  0
ENDTAB
  0
TABLE
  2
LTYPE
  5
556
330
0
100
AcDbSymbolTable
 70
     5
  0
LTYPE
  5
557
330
556
100
AcDbSymbolTableRecord
100
AcDbLinetypeTableRecord
  2
BYBLOCK
 70
     0
  3

 72
    65
 73
     0
 40
0.0
  0
LTYPE
  5
558
330
556
100
AcDbSymbolTableRecord
100
AcDbLinetypeTableRecord
  2
BYLAYER
 70
     0
  3

 72
    65
 73
     0
 40
0.0
  0
LTYPE
  5
5
330
556
100
AcDbSymbolTableRecord
100
AcDbLinetypeTableRecord
  2
CONTINUOUS
 70
     0
  3
Solid line
 72
    65
 73
     0
 40
0.0
  0
LTYPE
  5
4FC9
330
556
100
AcDbSymbolTableRecord
100
AcDbLinetypeTableRecord
  2
BATTING
 70
     0
  3
Batting SSSSSSSSSSSSSSSSSSSSSSSSSSSSSSSSSSSSSSSSSSSSSSS
 72
    65
 73
     4
 40
0.4001000000000001
 49
0.0001
 74
     0
 49
-0.1
 74
     4
 75
   134
340
4FC8
 46
0.1
 50
0.0
 44
-0.1
 45
0.0
 49
-0.2
 74
     4
 75
   134
340
4FC8
 46
0.1
 50
180.0
 44
0.1
 45
0.0
 49
-0.1
 74
     0
  0
LTYPE
  5
723A
330
556
100
AcDbSymbolTableRecord
100
AcDbLinetypeTableRecord
  2
HIDDEN
 70
     0
  3
Hidden __ __ __ __ __ __ __ __ __ __ __ __ __ __
 72
    65
 73
     2
 40
0.375
 49
0.25
 74
     0
 49
-0.125
 74
     0
  0
LTYPE
  5
76A5
330
556
100
AcDbSymbolTableRecord
100
AcDbLinetypeTableRecord
  2
PHANTOM2
 70
     0
  3
Phantom (.5x) ___ _ _ ___ _ _ ___ _ _ ___ _ _
 72
    65
 73
     6
 40
1.25
 49
0.625
 74
     0
 49
-0.125
 74
     0
 49
0.125
 74
     0
 49
-0.125
 74
     0
 49
0.125
 74
     0
 49
-0.125
 74
     0
  0
ENDTAB
  0
TABLE
  2
LAYER
  5
553
102
{ACAD_XDICTIONARY
360
2C65
102
}
330
0
100
AcDbSymbolTable
 70
    15
  0
LAYER
  5
24
102
{ACAD_XDICTIONARY
360
2F90
102
}
330
553
100
AcDbSymbolTableRecord
100
AcDbLayerTableRecord
  2
0
 70
     0
 62
     7
  6
CONTINUOUS
370
    -3
390
58B
  0
LAYER
  5
2F
330
553
100
AcDbSymbolTableRecord
100
AcDbLayerTableRecord
  2
DEFPOINTS
 70
     0
 62
   210
  6
CONTINUOUS
290
     0
370
    -3
390
58B
  0
LAYER
  5
2FEE
330
553
100
AcDbSymbolTableRecord
100
AcDbLayerTableRecord
  2
Border
 70
     0
 62
     7
  6
CONTINUOUS
370
    -3
390
58B
1001
AcAecLayerStandard
1000

1000

  0
LAYER
  5
2FF6
102
{ACAD_XDICTIONARY
360
2FF7
102
}
330
553
100
AcDbSymbolTableRecord
100
AcDbLayerTableRecord
  2
3
 70
     0
 62
     2
  6
CONTINUOUS
370
    -3
390
58B
  0
LAYER
  5
2FF8
102
{ACAD_XDICTIONARY
360
2FF9
102
}
330
553
100
AcDbSymbolTableRecord
100
AcDbLayerTableRecord
  2
Title block
 70
     0
 62
     7
  6
CONTINUOUS
370
    50
390
58B
  0
LAYER
  5
30A7
330
553
100
AcDbSymbolTableRecord
100
AcDbLayerTableRecord
  2
Text
 70
     0
 62
     7
  6
CONTINUOUS
370
    -3
390
58B
1001
AcAecLayerStandard
1000

1000

  0
LAYER
  5
3774
330
553
100
AcDbSymbolTableRecord
100
AcDbLayerTableRecord
  2
Hatch
 70
     0
 62
     2
  6
CONTINUOUS
370
    -3
390
58B
1001
AcAecLayerStandard
1000

1000

  0
LAYER
  5
37C0
102
{ACAD_XDICTIONARY
360
37C1
102
}
330
553
100
AcDbSymbolTableRecord
100
AcDbLayerTableRecord
  2
Fastenings and sealants
 70
     0
 62
     4
  6
CONTINUOUS
370
    13
390
58B
  0
LAYER
  5
4FC4
330
553
100
AcDbSymbolTableRecord
100
AcDbLayerTableRecord
  2
Lining
 70
     0
 62
    93
  6
CONTINUOUS
370
    35
390
58B
1001
AcAecLayerStandard
1000

1000

  0
LAYER
  5
4FC6
330
553
100
AcDbSymbolTableRecord
100
AcDbLayerTableRecord
  2
Insulation
 70
     0
 62
     6
  6
CONTINUOUS
370
    20
390
58B
1001
AcAecLayerStandard
1000

1000

  0
LAYER
  5
75DA
330
553
100
AcDbSymbolTableRecord
100
AcDbLayerTableRecord
  2
Timber
 70
     0
 62
    31
  6
CONTINUOUS
370
    -3
390
58B
1001
AcAecLayerStandard
1000

1000

  0
LAYER
  5
7971
102
{ACAD_XDICTIONARY
360
7972
102
}
330
553
100
AcDbSymbolTableRecord
100
AcDbLayerTableRecord
  2
Supercrete
 70
     0
 62
     7
  6
CONTINUOUS
370
    40
390
58B
  0
ENDTAB
  0
TABLE
  2
STYLE
  5
554
330
0
100
AcDbSymbolTable
 70
    11
  0
STYLE
  5
555
330
554
100
AcDbSymbolTableRecord
100
AcDbTextStyleTableRecord
  2
STANDARD
 70
     0
 40
0.0
 41
1.0
 50
0.0
 71
     0
 42
150.0
  3
times.ttf
  4

1001
ACAD
1000
Times New Roman
1071
       18
  0
STYLE
  5
6
330
554
100
AcDbSymbolTableRecord
100
AcDbTextStyleTableRecord
  2
ROMANS
 70
     0
 40
0.0
 41
1.0
 50
0.0
 71
     0
 42
100.0
  3
romans.shx
  4

  0
STYLE
  5
2FFB
330
554
100
AcDbSymbolTableRecord
100
AcDbTextStyleTableRecord
  2
Title block
 70
     0
 40
2.5
 41
1.0
 50
0.0
 71
     0
 42
2.5
  3
times.ttf
  4

1001
ACAD
1000
Times New Roman
1071
       18
  0
STYLE
  5
30E8
330
554
100
AcDbSymbolTableRecord
100
AcDbTextStyleTableRecord
  2
1
 70
     0
 40
2.5
 41
1.0
 50
0.0
 71
     0
 42
2.5
  3
swiss.ttf
  4

1001
ACAD
1000
Swis721 BT
1071
       34
  0
STYLE
  5
4FC8
330
554
100
AcDbSymbolTableRecord
100
AcDbTextStyleTableRecord
  2

 70
     1
 40
0.0
 41
1.0
 50
0.0
 71
     0
 42
2.5
  3
ltypeshp.shx
  4

  0
STYLE
  5
7A1B
330
554
100
AcDbSymbolTableRecord
100
AcDbTextStyleTableRecord
  2
5
 70
     0
 40
12.5
 41
1.0
 50
0.0
 71
     0
 42
12.5
  3
swiss.ttf
  4

1001
ACAD
1000
Swis721 BT
1071
       34
  0
ENDTAB
  0
TABLE
  2
VIEW
  5
559
330
0
100
AcDbSymbolTable
 70
     5
  0
ENDTAB
  0
TABLE
  2
UCS
  5
55A
330
0
100
AcDbSymbolTable
 70
     0
  0
ENDTAB
  0
TABLE
  2
APPID
  5
55D
330
0
100
AcDbSymbolTable
 70
    31
  0
APPID
  5
62
330
55D
100
AcDbSymbolTableRecord
100
AcDbRegAppTableRecord
  2
ACAD
 70
     0
  0
APPID
  5
597
330
55D
100
AcDbSymbolTableRecord
100
AcDbRegAppTableRecord
  2
DCO15
 70
     0
  0
APPID
  5
F23
330
55D
100
AcDbSymbolTableRecord
100
AcDbRegAppTableRecord
  2
ACAD_DIMASSOC_CALC_DIMLFAC
 70
     0
  0
APPID
  5
F24
330
55D
100
AcDbSymbolTableRecord
100
AcDbRegAppTableRecord
  2
ACAD_DIMASSOC_DIMLFAC
 70
     0
  0
APPID
  5
F25
330
55D
100
AcDbSymbolTableRecord
100
AcDbRegAppTableRecord
  2
ACAD_DIMASSOC_OVERRIDDEN_DIMLFAC
 70
     0
  0
APPID
  5
2F87
330
55D
100
AcDbSymbolTableRecord
100
AcDbRegAppTableRecord
  2
ACAD_MLEADERVER
 70
     0
  0
APPID
  5
2FEF
330
55D
100
AcDbSymbolTableRecord
100
AcDbRegAppTableRecord
  2
AcAecLayerStandard
 70
     0
  0
APPID
  5
2FFD
330
55D
100
AcDbSymbolTableRecord
100
AcDbRegAppTableRecord
  2
AcadAnnoPO
 70
     0
  0
APPID
  5
2FFE
330
55D
100
AcDbSymbolTableRecord
100
AcDbRegAppTableRecord
  2
AcadAnnotative
 70
     0
  0
APPID
  5
2FFF
330
55D
100
AcDbSymbolTableRecord
100
AcDbRegAppTableRecord
  2
ACAD_DSTYLE_DIMJAG
 70
     0
  0
APPID
  5
3000
330
55D
100
AcDbSymbolTableRecord
100
AcDbRegAppTableRecord
  2
ACAD_DSTYLE_DIMTALN
 70
     0
  0
APPID
  5
3001
330
55D
100
AcDbSymbolTableRecord
100
AcDbRegAppTableRecord
  2
ACAD_PSEXT
 70
     0
  0
APPID
  5
3002
330
55D
100
AcDbSymbolTableRecord
100
AcDbRegAppTableRecord
  2
PROGE_PRINT_SETTINGS
 70
     0
  0
APPID
  5
3003
330
55D
100
AcDbSymbolTableRecord
100
AcDbRegAppTableRecord
  2
PCAD_LAYOUT
 70
     0
  0
APPID
  5
3004
330
55D
100
AcDbSymbolTableRecord
100
AcDbRegAppTableRecord
  2
RAK
 70
     0
  0
APPID
  5
3005
330
55D
100
AcDbSymbolTableRecord
100
AcDbRegAppTableRecord
  2
ACAD_DSTYLE_DIM_EXT1_LINETYPE
 70
     0
  0
APPID
  5
3006
330
55D
100
AcDbSymbolTableRecord
100
AcDbRegAppTableRecord
  2
ACAD_DSTYLE_DIM_EXT2_LINETYPE
 70
     0
  0
APPID
  5
3007
330
55D
100
AcDbSymbolTableRecord
100
AcDbRegAppTableRecord
  2
ACAD_DSTYLE_DIM_LINETYPE
 70
     0
  0
APPID
  5
3008
330
55D
100
AcDbSymbolTableRecord
100
AcDbRegAppTableRecord
  2
AcDbAttr
 70
     0
  0
APPID
  5
3009
330
55D
100
AcDbSymbolTableRecord
100
AcDbRegAppTableRecord
  2
ACAD_EXEMPT_FROM_CAD_STANDARDS
 70
     0
  0
APPID
  5
37C8
330
55D
100
AcDbSymbolTableRecord
100
AcDbRegAppTableRecord
  2
ACAD_DSTYLE_DIMJOGGED_JOGANGLE_SYMBOL
 70
     0
  0
APPID
  5
3981
330
55D
100
AcDbSymbolTableRecord
100
AcDbRegAppTableRecord
  2
ACAD_DSTYLE_DIMEXT_LENGTH
 70
     0
  0
APPID
  5
485F
330
55D
100
AcDbSymbolTableRecord
100
AcDbRegAppTableRecord
  2
ACAD_DSTYLE_DIMTEXT_FILL
 70
     0
  0
APPID
  5
4860
330
55D
100
AcDbSymbolTableRecord
100
AcDbRegAppTableRecord
  2
ACAD_DSTYLE_DIMEXT_ENABLED
 70
     0
  0
APPID
  5
4861
330
55D
100
AcDbSymbolTableRecord
100
AcDbRegAppTableRecord
  2
ACAD_DSTYLE_DIMARC_LENGTH_SYMBOL
 70
     0
  0
APPID
  5
4862
330
55D
100
AcDbSymbolTableRecord
100
AcDbRegAppTableRecord
  2
AcDbDynamicBlockGUID
 70
     0
  0
APPID
  5
4863
330
55D
100
AcDbSymbolTableRecord
100
AcDbRegAppTableRecord
  2
AcDbBlockRepETag
 70
     0
  0
APPID
  5
4864
330
55D
100
AcDbSymbolTableRecord
100
AcDbRegAppTableRecord
  2
ACAUTHENVIRON
 70
     0
  0
APPID
  5
4865
330
55D
100
AcDbSymbolTableRecord
100
AcDbRegAppTableRecord
  2
AcDbDynamicBlockTrueName
 70
     0
  0
APPID
  5
4866
330
55D
100
AcDbSymbolTableRecord
100
AcDbRegAppTableRecord
  2
ACAD_DSTYLE_DIMBREAK
 70
     0
  0
APPID
  5
76BC
330
55D
100
AcDbSymbolTableRecord
100
AcDbRegAppTableRecord
  2
ACAD_NAV_VCDISPLAY
 70
     0
  0
ENDTAB
  0
TABLE
  2
DIMSTYLE
  5
55E
330
0
100
AcDbSymbolTable
 70
     6
100
AcDbDimStyleTable
 71
     1
340
663
  0
DIMSTYLE
105
663
102
{ACAD_REACTORS
330
79C9
330
79D4
330
79CD
330
79C8
330
79CE
330
79CF
330
79D1
330
79D3
102
}
330
55E
100
AcDbSymbolTableRecord
100
AcDbDimStyleTableRecord
  2
STANDARD
 70
     0
 41
3.0
 42
1.0
 43
1.0
 44
1.0
 73
     0
 74
     0
 77
     1
140
2.5
147
1.0
176
     7
177
     7
271
     0
272
     0
340
30E8
1001
ACAD_DSTYLE_DIMJAG
1070
   388
1040
1.5
1001
ACAD_DSTYLE_DIMTALN
1070
   392
1070
     0
  0
ENDTAB
  0
TABLE
  2
BLOCK_RECORD
  5
1
330
0
100
AcDbSymbolTable
 70
     5
  0
BLOCK_RECORD
  5
2
102
{ACAD_XDICTIONARY
360
30CC
102
}
330
1
100
AcDbSymbolTableRecord
100
AcDbBlockTableRecord
  2
*MODEL_SPACE
340
58E
  0
BLOCK_RECORD
  5
5E
102
{ACAD_XDICTIONARY
360
7523
102
}
330
1
100
AcDbSymbolTableRecord
100
AcDbBlockTableRecord
  2
*PAPER_SPACE
340
58F
  0
BLOCK_RECORD
  5
300A
102
{ACAD_XDICTIONARY
360
3021
102
}
330
1
100
AcDbSymbolTableRecord
100
AcDbBlockTableRecord
  2
A4 Title Block
340
0
102
{BLKREFS
331
3700
102
}
1001
ACAD
1000
DesignCenter Data
1002
{
1070
     1
1070
     4
1002
}
  0
ENDTAB
  0
ENDSEC
  0
SECTION
  2
BLOCKS
  0
BLOCK
  5
5C
330
2
100
AcDbEntity
  8
0
100
AcDbBlockBegin
  2
*MODEL_SPACE
 70
     0
 10
0.0
 20
0.0
 30
0.0
  3
*MODEL_SPACE
  1

  0
ENDBLK
  5
5D
330
2
100
AcDbEntity
  8
0
100
AcDbBlockEnd
  0
BLOCK
  5
551
330
5E
100
AcDbEntity
 67
     1
  8
0
100
AcDbBlockBegin
  2
*PAPER_SPACE
 70
     0
 10
0.0
 20
0.0
 30
0.0
  3
*PAPER_SPACE
  1

  0
ENDBLK
  5
552
330
5E
100
AcDbEntity
 67
     1
  8
0
100
AcDbBlockEnd
  0
BLOCK
  5
3023
330
300A
100
AcDbEntity
  8
0
100
AcDbBlockBegin
  2
A4 Title Block
 70
     2
 10
0.0
 20
0.0
 30
0.0
  3
A4 Title Block
  1

  0
TEXT
  5
7978
330
300A
100
AcDbEntity
  8
3
 62
     7
100
AcDbText
 10
-853.4347976406543
 20
37.0581002795501
 30
0.0
 40
8.0
  1

 41
0.85
  7
ROMANS
100
AcDbText
  0
LINE
  5
7979
330
300A
100
AcDbEntity
  8
Title block
100
AcDbLine
 10
-53.39424020223919
 20
255.4041454248354
 30
0.0
 11
-53.39424020223919
 21
-21.19891004925512
 31
0.0
  0
LINE
  5
797A
330
300A
100
AcDbEntity
  8
Title block
100
AcDbLine
 10
-53.39424020223919
 20
-21.19891004925512
 30
0.0
 11
136.6057597977608
 21
-21.19891004925512
 31
0.0
  0
LINE
  5
797B
330
300A
100
AcDbEntity
  8
Title block
100
AcDbLine
 10
136.6057597977608
 20
-21.19891004925512
 30
0.0
 11
136.6057597977608
 21
255.4041454248354
 31
0.0
  0
LINE
  5
797C
330
300A
100
AcDbEntity
  8
Title block
100
AcDbLine
 10
136.6057597977608
 20
255.4041454248354
 30
0.0
 11
-53.39424020223919
 21
255.4041454248354
 31
0.0
  0
LINE
  5
797D
330
300A
100
AcDbEntity
  8
Title block
100
AcDbLine
 10
5.322295774367375
 20
-1.849809968847825
 30
0.0
 11
136.7843384162145
 21
-1.849809968847711
 31
0.0
  0
LINE
  5
797E
330
300A
100
AcDbEntity
  8
Title block
100
AcDbLine
 10
5.322295774367375
 20
-10.88464955839267
 30
0.0
 11
136.7843384162147
 21
-10.88464955839255
 31
0.0
  0
TEXT
  5
797F
330
300A
100
AcDbEntity
  8
0
100
AcDbText
 10
9.675893772968493
 20
-7.472611373172771
 30
0.0
 40
2.5
  1
Date:
  7
Title block
100
AcDbText
  0
TEXT
  5
7980
330
300A
100
AcDbEntity
  8
0
100
AcDbText
 10
91.38994071143883
 20
-7.411777803461195
 30
0.0
 40
2.5
  1
Detail No.
  7
Title block
100
AcDbText
  0
TEXT
  5
7981
330
300A
100
AcDbEntity
  8
0
100
AcDbText
 10
9.502250865730047
 20
7.648243604712661
 30
0.0
 40
2.5
  1
Title:
  7
Title block
100
AcDbText
  0
LWPOLYLINE
  5
7982
330
300A
100
AcDbEntity
  8
Title block
100
AcDbPolyline
 90
        2
 70
     0
 43
0.0
 10
-53.39424020223919
 20
12.10448104516263
 10
136.6057597977608
 20
12.10448104516263
  0
MTEXT
  5
7983
330
300A
100
AcDbEntity
  8
Title block
100
AcDbMText
 10
6.609142078680179
 20
-12.95411800504515
 30
0.0
 40
2.5
 41
129.8458211596216
 71
     1
 72
     1
  1
This drawing is to be read in conjunction with all the current, relevant Supercrete \PTechnical Literature, Project Specific Design Documentation and Specifications
  7
Title block
 73
     1
 44
1.0
  0
LWPOLYLINE
  5
7984
330
300A
100
AcDbEntity
  8
Title block
100
AcDbPolyline
 90
        2
 70
     0
 43
0.0
 10
46.71209860759859
 20
-1.849809968847822
 10
46.71209860759859
 20
-10.88464955839267
  0
LWPOLYLINE
  5
7985
330
300A
100
AcDbEntity
  8
Title block
100
AcDbPolyline
 90
        2
 70
     0
 43
0.0
 10
89.74925677747592
 20
-1.849809968847832
 10
89.74925677747592
 20
-10.88464955839268
  0
TEXT
  5
7986
330
300A
100
AcDbEntity
  8
0
100
AcDbText
 10
51.06569660619993
 20
-7.472611373172771
 30
0.0
 40
2.5
  1
Scale:
  7
Title block
100
AcDbText
  0
ATTDEF
  5
7987
330
300A
100
AcDbEntity
  8
Title block
100
AcDbText
 10
20.96937096573947
 20
-7.642940466626214
 30
0.0
 40
2.5
  1

100
AcDbAttributeDefinition
  3
Date
  2
DATE
 70
     0
1001
AcDbAttr
1070
     0
1070
     1
  0
ATTDEF
  5
7988
330
300A
100
AcDbEntity
  8
Title block
100
AcDbText
 10
63.23629700150786
 20
-7.642940466626214
 30
0.0
 40
2.5
  1

100
AcDbAttributeDefinition
  3
Scale
  2
SCALE
 70
     0
1001
AcDbAttr
1070
     0
1070
     1
  0
ATTDEF
  5
7989
330
300A
100
AcDbEntity
  8
Title block
100
AcDbText
 10
111.1388136280311
 20
-7.311601095675996
 30
0.0
 40
2.5
  1

100
AcDbAttributeDefinition
  3
Drg No
  2
DRGNO
 70
     0
1001
AcDbAttr
1070
     0
1070
     1
  0
ATTDEF
  5
798A
330
300A
100
AcDbEntity
  8
Title block
100
AcDbText
 10
8.067229221254478
 20
-0.0001543750333894
 30
0.0
 40
3.5
  1

  7
1
100
AcDbAttributeDefinition
  3
Title
  2
TITLE
 70
     0
  0
ATTDEF
  5
798B
330
300A
100
AcDbEntity
  8
Title block
100
AcDbText
 10
19.80232515842442
 20
6.748439479395983
 30
0.0
 40
3.5
  1

  7
1
100
AcDbAttributeDefinition
  3
Title2
  2
TITLE2
 70
     0
  0
LINE
  5
798C
330
300A
100
AcDbEntity
  8
Title block
100
AcDbLine
 10
5.160599931094154
 20
12.11369795074488
 30
0.0
 11
5.160599931094154
 21
-21.18969314367286
 31
0.0
  0
IMAGE
  5
798D
330
300A
100
AcDbEntity
  8
Title block
 92
      140
310
8C0000000100000084000000060000000500000060B1837676B24AC0005F2FB1C06AF1BF000000000000000060B1837676B24AC0F80C208A7E35284000000000000000003028EF4E74A41440F80C208A7E35284000000000000000003028EF4E74A41440005F2FB1C06AF1BF000000000000000060B1837676B24AC0005F2F
310
B1C06AF1BF0000000000000000
100
AcDbRasterImage
 90
        0
 10
-53.39424020223919
 20
-1.088562671784472
 30
0.0
 11
0.0428345575225555
 21
0.0
 31
0.0
 12
0.0
 22
0.0428345575225555
 32
0.0
 13
1367.0
 23
308.0
340
7990
 70
     7
280
     0
281
    50
282
    50
283
     0
360
798E
 71
     1
 91
        2
 14
-0.5
 24
-0.5
 14
1366.5
 24
307.5
  0
ENDBLK
  5
3024
330
300A
100
AcDbEntity
  8
0
100
AcDbBlockEnd
  0
ENDSEC
  0
SECTION
  2
ENTITIES
  0
LINE
  5
2909
330
2
100
AcDbEntity
  8
Text
370
     9
100
AcDbLine
 10
3860.876376180637
 20
42616.18711576208
 30
0.0
 11
3855.331065005627
 21
42623.09820425985
 31
0.0
  0
LINE
  5
290B
330
2
100
AcDbEntity
  8
Text
370
     9
100
AcDbLine
 10
3849.785753830616
 20
42613.13338023668
 30
0.0
 11
3860.876376180637
 21
42616.18711576208
 31
0.0
  0
LINE
  5
290C
330
2
100
AcDbEntity
  8
Text
370
     9
100
AcDbLine
 10
3855.331065005627
 20
42606.22229173892
 30
0.0
 11
3849.785753830616
 21
42613.13338023668
 31
0.0
  0
LINE
  5
290D
330
2
100
AcDbEntity
  8
Text
370
     9
100
AcDbLine
 10
3855.331065005627
 20
42554.58133251463
 30
0.0
 11
3855.331065005627
 21
42606.22229173892
 31
0.0
  0
LINE
  5
291F
330
2
100
AcDbEntity
  8
Supercrete
370
    50
100
AcDbLine
 10
3540.531010867468
 20
42572.87262244841
 30
0.0
 11
3540.531010867475
 21
42647.87262244841
 31
0.0
  0
LINE
  5
2923
330
2
100
AcDbEntity
  8
Supercrete
370
    50
100
AcDbLine
 10
3540.531010867468
 20
42572.87262244841
 30
0.0
 11
3855.331065005627
 21
42572.87262244841
 31
0.0
  0
LINE
  5
2924
330
2
100
AcDbEntity
  8
Supercrete
370
    50
100
AcDbLine
 10
3540.53101086749
 20
42647.87262244841
 30
0.0
 11
3855.331065005627
 21
42647.87262244841
 31
0.0
  0
LINE
  5
371F
330
2
100
AcDbEntity
  8
Text
370
     9
100
AcDbLine
 10
3855.331065005627
 20
42643.30101134283
 30
0.0
 11
3855.331065005627
 21
42623.09820425985
 31
0.0
  0
LINE
  5
4E89
330
2
100
AcDbEntity
  8
Text
370
     9
100
AcDbLine
 10
3860.876376180637
 20
42673.46864244897
 30
0.0
 11
3855.331065005627
 21
42680.37973094674
 31
0.0
  0
LINE
  5
4E8A
330
2
100
AcDbEntity
  8
Text
370
     9
100
AcDbLine
 10
3849.785753830616
 20
42670.41490692357
 30
0.0
 11
3860.876376180637
 21
42673.46864244897
 31
0.0
  0
LINE
  5
4E8B
330
2
100
AcDbEntity
  8
Text
370
     9
100
AcDbLine
 10
3855.331065005627
 20
42663.50381842581
 30
0.0
 11
3849.785753830616
 21
42670.41490692357
 31
0.0
  0
LINE
  5
4E8C
330
2
100
AcDbEntity
  8
Text
370
     9
100
AcDbLine
 10
3855.331065005627
 20
42643.30101134283
 30
0.0
 11
3855.331065005627
 21
42663.50381842581
 31
0.0
  0
LINE
  5
4E8D
330
2
100
AcDbEntity
  8
Text
370
     9
100
AcDbLine
 10
3855.331065005627
 20
42720.7853451127
 30
0.0
 11
3855.331065005627
 21
42680.37973094674
 31
0.0
  0
LINE
  5
4E95
330
2
100
AcDbEntity
  8
Text
370
     9
100
AcDbLine
 10
3860.876376180637
 20
42730.75016913587
 30
0.0
 11
3855.331065005627
 21
42737.66125763363
 31
0.0
  0
LINE
  5
4E96
330
2
100
AcDbEntity
  8
Text
370
     9
100
AcDbLine
 10
3849.785753830616
 20
42727.69643361047
 30
0.0
 11
3860.876376180637
 21
42730.75016913587
 31
0.0
  0
LINE
  5
4E97
330
2
100
AcDbEntity
  8
Text
370
     9
100
AcDbLine
 10
3855.331065005627
 20
42720.78534511271
 30
0.0
 11
3849.785753830616
 21
42727.69643361047
 31
0.0
  0
LINE
  5
4E98
330
2
100
AcDbEntity
  8
Text
370
     9
100
AcDbLine
 10
3855.331065005627
 20
42778.0668717996
 30
0.0
 11
3855.331065005627
 21
42737.66125763364
 31
0.0
  0
HATCH
  5
58E8
330
2
100
AcDbEntity
  8
Hatch
100
AcDbHatch
 10
0.0
 20
0.0
 30
0.0
210
0.0
220
0.0
230
1.0
  2
AR-SAND
 70
     0
 71
     0
 91
        2
 92
        7
 72
     0
 73
     1
 93
       69
 10
3855.331065005626
 20
42606.22229173892
 10
3849.785753830615
 20
42613.13338023668
 10
3860.876376180638
 20
42616.18711576208
 10
3855.331065005627
 20
42623.09820425986
 10
3855.331065005627
 20
42643.30101134283
 10
3855.331065005627
 20
42647.87262244841
 10
3578.886679242538
 20
42647.87262244841
 10
3578.886679242538
 20
42647.21834441603
 10
3579.317019751664
 20
42647.05270505799
 10
3578.886679242538
 20
42646.68829847033
 10
3578.886679242538
 20
42645.74224923433
 10
3579.317019751665
 20
42645.57660987629
 10
3578.886679242538
 20
42645.21220328863
 10
3578.886679242538
 20
42644.30048184756
 10
3579.317019751664
 20
42644.13484248954
 10
3578.886679242538
 20
42643.77043590187
 10
3578.886679242538
 20
42642.89303797971
 10
3579.317019751659
 20
42642.72739862168
 10
3578.886679242538
 20
42642.36299203401
 10
3578.886679242538
 20
42641.45919194509
 10
3579.248414305663
 20
42641.31995902984
 10
3578.886679242538
 20
42641.0136466163
 10
3578.886679242538
 20
42640.1811421808
 10
3579.317019751661
 20
42640.01550282276
 10
3578.886679242538
 20
42639.6510962351
 10
3578.886679242538
 20
42638.8185917996
 10
3579.317019751664
 20
42638.65295244156
 10
3578.886679242538
 20
42638.28854585389
 10
3578.886679242538
 20
42637.37682441282
 10
3579.317019751651
 20
42637.21118505479
 10
3578.886679242538
 20
42636.84677846712
 10
3578.886679242538
 20
42635.96938054497
 10
3579.317019751664
 20
42635.80374118693
 10
3578.886679242538
 20
42635.43933459927
 10
3578.886679242538
 20
42634.53553451033
 10
3579.248414305663
 20
42634.39630159511
 10
3578.886679242538
 20
42634.08998918156
 10
3578.886679242538
 20
42633.25748474604
 10
3579.317019751669
 20
42633.09184538802
 10
3578.886679242538
 20
42632.72743880035
 10
3578.886679242538
 20
42631.81571735928
 10
3579.317019751659
 20
42631.65007800125
 10
3578.886679242538
 20
42631.28567141358
 10
3578.886679242538
 20
42630.27096658774
 10
3579.317019751667
 20
42630.10532722971
 10
3578.886679242538
 20
42629.74092064204
 10
3578.886679242538
 20
42628.76054361113
 10
3579.317019751659
 20
42628.59490425308
 10
3578.886679242538
 20
42628.23049766543
 10
3578.886679242538
 20
42627.28444842944
 10
3579.317019751672
 20
42627.11880907141
 10
3578.886679242538
 20
42626.75440248373
 10
3578.886679242538
 20
42625.84268104268
 10
3579.317019751664
 20
42625.67704168464
 10
3578.886679242538
 20
42625.31263509696
 10
3578.886679242538
 20
42624.43523717482
 10
3579.31701975167
 20
42624.26959781679
 10
3578.886679242538
 20
42623.90519122912
 10
3578.886679242538
 20
42623.00139114019
 10
3579.248414305658
 20
42622.86215822494
 10
3578.886679242538
 20
42622.55584581141
 10
3578.886679242538
 20
42621.7233413759
 10
3579.31701975167
 20
42621.55770201787
 10
3578.886679242538
 20
42621.19329543019
 10
3578.886679242538
 20
42577.87262244841
 10
3581.097399469707
 20
42577.87262244841
 10
3582.097399469708
 20
42577.87262244841
 10
3582.097399469708
 20
42572.87262244841
 10
3855.331065005627
 20
42572.87262244841
 97
        0
 92
        7
 72
     0
 73
     1
 93
       65
 10
3577.175342492404
 20
42620.76816273465
 10
3576.678203560206
 20
42620.76816273465
 10
3577.175342492403
 20
42621.30394349695
 10
3577.175342492403
 20
42622.07261894172
 10
3576.609598114196
 20
42622.07261894173
 10
3577.175342492401
 20
42622.68233774382
 10
3577.175342492402
 20
42623.48005853356
 10
3576.678203560207
 20
42623.48005853356
 10
3577.175342492402
 20
42624.01583929587
 10
3577.175342492402
 20
42624.88750240141
 10
3576.678203560207
 20
42624.88750240141
 10
3577.175342492402
 20
42625.42328316372
 10
3577.175342492402
 20
42626.32926978819
 10
3576.678203560207
 20
42626.32926978819
 10
3577.175342492402
 20
42626.86505055049
 10
3577.175342492402
 20
42627.80536496987
 10
3576.6782035602
 20
42627.80536496988
 10
3577.175342492402
 20
42628.34114573218
 10
3577.175342492403
 20
42629.31578794648
 10
3576.6782035602
 20
42629.31578794648
 10
3577.175342492402
 20
42629.85156870877
 10
3577.175342492402
 20
42630.86053871802
 10
3576.678203560211
 20
42630.86053871802
 10
3577.175342492403
 20
42631.39631948034
 10
3577.175342492402
 20
42632.30230610479
 10
3576.678203560204
 20
42632.30230610479
 10
3577.175342492402
 20
42632.83808686709
 10
3577.175342492402
 20
42633.60676231186
 10
3576.609598114192
 20
42633.60676231186
 10
3577.175342492403
 20
42634.21648111398
 10
3577.175342492402
 20
42635.01420190371
 10
3576.678203560211
 20
42635.01420190371
 10
3577.175342492402
 20
42635.54998266602
 10
3577.175342492402
 20
42636.42164577156
 10
3576.678203560211
 20
42636.42164577155
 10
3577.175342492403
 20
42636.95742653386
 10
3577.175342492402
 20
42637.86341315833
 10
3576.678203560204
 20
42637.86341315833
 10
3577.175342492403
 20
42638.39919392063
 10
3577.175342492402
 20
42639.22596353953
 10
3576.678203560204
 20
42639.22596353952
 10
3577.175342492402
 20
42639.76174430184
 10
3577.175342492402
 20
42640.53041974661
 10
3576.609598114202
 20
42640.53041974661
 10
3577.175342492402
 20
42641.14013854872
 10
3577.175342492403
 20
42641.93785933846
 10
3576.678203560208
 20
42641.93785933846
 10
3577.175342492402
 20
42642.47364010076
 10
3577.175342492402
 20
42643.34530320631
 10
3576.678203560207
 20
42643.34530320631
 10
3577.175342492402
 20
42643.88108396862
 10
3577.175342492402
 20
42644.78707059307
 10
3576.678203560211
 20
42644.78707059307
 10
3577.175342492402
 20
42645.32285135538
 10
3577.175342492402
 20
42646.26316577476
 10
3576.678203560218
 20
42646.26316577476
 10
3577.175342492403
 20
42646.79894653707
 10
3577.175342492402
 20
42647.77358875138
 10
3576.678203560211
 20
42647.77358875138
 10
3576.770094702733
 20
42647.87262244841
 10
3540.531010867475
 20
42647.87262244841
 10
3540.531010867468
 20
42572.87262244841
 10
3573.964622265233
 20
42572.87262244841
 10
3573.964622265233
 20
42577.87262244841
 10
3577.175342492401
 20
42577.87262244841
 97
        0
 75
     0
 76
     1
 52
0.0
 41
5.0
 77
     0
 78
     4
 53
37.5
 43
3540.531010867468
 44
42572.87262244841
 45
-0.3149667905480408
 46
9.634118845065792
 79
     6
 49
0.0
 49
-7.599999999999999
 49
0.0
 49
-8.5
 49
0.0
 49
-8.125
 53
7.499999999999999
 43
3540.531010867468
 44
42572.87262244841
 45
8.848883526338635
 46
14.1107303261487
 79
     6
 49
0.0
 49
-4.099999999999999
 49
0.0
 49
-6.85
 49
0.0
 49
-2.625
 53
327.5
 43
3534.381010867468
 44
42572.87262244841
 45
15.57070930875747
 46
0.0282952676848225
 79
     6
 49
0.0
 49
-2.5
 49
0.0
 49
-9.0
 49
0.0
 49
-11.75
 53
317.5
 43
3534.381010867468
 44
42572.87262244841
 45
15.03063302286146
 46
4.388377824671245
 79
     6
 49
0.0
 49
-1.25
 49
0.0
 49
-5.899999999999999
 49
0.0
 49
-6.75
 47
0.5938998768884522
 98
        2
 10
3729.736787202659
 20
42599.46133757348
 10
3563.365013976254
 20
42609.55766070626
1001
ACAD
1010
3537.531010867468
1020
42572.87262244841
1030
0.0
  0
LINE
  5
5B70
330
2
100
AcDbEntity
  8
Lining
370
    50
100
AcDbLine
 10
3540.531010867468
 20
42562.87262244843
 30
0.0
 11
3855.331065005627
 21
42562.87262244841
 31
0.0
  0
LINE
  5
5E3F
330
2
100
AcDbEntity
  8
Supercrete
370
    50
100
AcDbLine
 10
3527.531010867466
 20
42360.8008094024
 30
0.0
 11
3527.531010867472
 21
42658.7892938017
 31
0.0
  0
ELLIPSE
  5
5E5F
330
2
100
AcDbEntity
  8
Fastenings and sealants
100
AcDbEllipse
 10
3535.531010867483
 20
42590.43990425371
 30
0.0
 11
0.0000000000000005
 21
7.567281805293022
 31
0.0
210
0.0
220
0.0
230
1.0
 40
0.6607392361815695
 41
0.0
 42
6.283185307179586
  0
LINE
  5
5E71
330
2
100
AcDbEntity
  8
Lining
370
    50
100
AcDbLine
 10
3540.531010867468
 20
42572.8726224484
 30
0.0
 11
3540.531010867468
 21
42562.87262244843
 31
0.0
  0
ARC
  5
5E72
330
2
100
AcDbEntity
  8
Fastenings and sealants
100
AcDbCircle
 10
3535.531010867503
 20
42552.03825987638
 30
0.0
 40
11.93245206750236
100
AcDbArc
 50
65.22693044693359
 51
114.7730695534104
  0
HATCH
  5
5E96
330
2
100
AcDbEntity
  8
Hatch
100
AcDbHatch
 10
0.0
 20
0.0
 30
0.0
210
0.0
220
0.0
230
1.0
  2
AR-CONC
 70
     0
 71
     0
 91
        1
 92
        1
 93
        4
 72
     1
 10
3540.531010867468
 20
42572.87262244841
 11
3540.531010867467
 21
42562.87262244839
 72
     1
 10
3540.531010867467
 20
42562.87262244839
 11
3855.331065005627
 21
42562.87262244843
 72
     1
 10
3855.331065005627
 20
42562.87262244843
 11
3855.331065005627
 21
42572.87262244841
 72
     1
 10
3855.331065005627
 20
42572.87262244841
 11
3540.531010867468
 21
42572.87262244841
 97
        0
 75
     0
 76
     1
 52
0.0
 41
1.0
 77
     0
 78
    13
 53
50.0
 43
3532.531010867469
 44
42562.87262244838
 45
7.172601826007534
 46
-0.6275213498259511
 79
     2
 49
0.75
 49
-8.25
 53
355.0
 43
3532.531010867469
 44
42562.87262244838
 45
-1.38751333613
 46
7.521921337000118
 79
     2
 49
0.6
 49
-6.599999999999999
 53
100.4514
 43
3533.128727667469
 44
42562.82032904838
 45
5.785093817140215
 46
6.894395420609535
 79
     2
 49
0.6374019000000001
 49
-7.011421119999999
 53
46.1842
 43
3532.531010867469
 44
42564.87262244838
 45
10.67241048625644
 46
-1.65519014329018
 79
     2
 49
1.125
 49
-12.375
 53
96.6356
 43
3533.420378317469
 44
42564.73468937838
 45
9.346627055487033
 46
9.741178709004417
 79
     2
 49
0.9561028799999998
 49
-10.51713
 53
351.1842000000001
 43
3532.531010867469
 44
42564.87262244838
 45
9.346619451336271
 46
9.741186009253246
 79
     2
 49
0.9
 49
-9.9
 53
21.0
 43
3533.531010867469
 44
42564.37262244838
 45
5.969070521184616
 46
-4.026188906653388
 79
     2
 49
0.75
 49
-8.25
 53
326.0
 43
3533.531010867469
 44
42564.37262244838
 45
2.433153319215817
 46
7.25150045046853
 79
     2
 49
0.6
 49
-6.599999999999999
 53
71.45140000000001
 43
3534.02843319747
 44
42564.03710638839
 45
8.402226285814899
 46
3.225304967099523
 79
     2
 49
0.6374019000000001
 49
-7.011421119999999
 53
37.5
 43
3532.531010867469
 44
42562.87262244838
 45
0.1215985531729067
 46
3.328938538313114
 79
     6
 49
0.0
 49
-6.519999999999999
 49
0.0
 49
-6.7
 49
0.0
 49
-6.625
 53
7.499999999999999
 43
3532.531010867469
 44
42562.87262244838
 45
2.630695374421486
 46
3.944117118823602
 79
     6
 49
0.0
 49
-3.819999999999999
 49
0.0
 49
-6.37
 49
0.0
 49
-2.524999999999999
 53
327.5
 43
3530.301010867469
 44
42562.87262244838
 45
5.33822436172409
 46
-0.225548717343798
 79
     6
 49
0.0
 49
-2.5
 49
0.0
 49
-7.799999999999999
 49
0.0
 49
-10.35
 53
317.5
 43
3529.301010867469
 44
42562.87262244838
 45
5.831861693423862
 46
1.001049823323176
 79
     6
 49
0.0
 49
-3.25
 49
0.0
 49
-5.179999999999999
 49
0.0
 49
-7.349999999999999
 98
        1
 10
3721.857993561418
 20
42565.24774595154
1001
ACAD
1010
3532.531010867469
1020
42562.87262244838
1030
0.0
  0
HATCH
  5
5EEB
330
2
100
AcDbEntity
  8
Fastenings and sealants
100
AcDbHatch
 10
0.0
 20
0.0
 30
0.0
210
0.0
220
0.0
230
1.0
  2
SOLID
 70
     1
 71
     0
 91
        1
 92
        5
 93
        5
 72
     3
 10
3535.531010867483
 20
42590.43990425371
 11
0.0000000000000005
 21
7.567281805293022
 40
0.6607392361815695
 50
90.00000000001277
 51
270.000000000003
 73
     0
 72
     1
 10
3530.53101086747
 20
42590.27126777394
 11
3530.53101086747
 21
42562.87262244843
 72
     2
 10
3535.531010867452
 20
42552.03825987635
 40
11.93245206750233
 50
245.2269304469098
 51
294.7730695532582
 73
     0
 72
     1
 10
3540.531010867468
 20
42562.87262244843
 11
3540.531010867468
 21
42572.8726224484
 72
     1
 10
3540.531010867468
 20
42572.8726224484
 11
3540.53101086747
 21
42590.27126777314
 97
        0
 75
     0
 76
     1
 47
0.211968023468343
 98
        1
 10
3537.119692026237
 20
42573.56116146413
450
        0
451
        0
460
0.0
461
0.0
452
        1
462
1.0
453
        2
463
0.0
 63
     5
421
      255
463
1.0
 63
     7
421
 16777215
470
LINEAR
1001
ACAD
1010
3527.53101086747
1020
42562.87262244843
1030
0.0
  0
LINE
  5
6009
330
2
100
AcDbEntity
  8
Supercrete
370
    50
100
AcDbLine
 10
3377.531010867464
 20
42360.80080940239
 30
0.0
 11
3377.531010867471
 21
42658.7892938017
 31
0.0
  0
LINE
  5
600C
330
2
100
AcDbEntity
  8
Text
370
     9
100
AcDbLine
 10
3507.214626632631
 20
42977.48563587274
 30
0.0
 11
3500.303538134867
 21
42971.94032469773
 31
0.0
  0
LINE
  5
600D
330
2
100
AcDbEntity
  8
Text
370
     9
100
AcDbLine
 10
3510.268362158029
 20
42966.39501352273
 30
0.0
 11
3507.214626632631
 21
42977.48563587274
 31
0.0
  0
LINE
  5
600E
330
2
100
AcDbEntity
  8
Text
370
     9
100
AcDbLine
 10
3517.179450655793
 20
42971.94032469773
 30
0.0
 11
3510.268362158029
 21
42966.39501352273
 31
0.0
  0
LINE
  5
600F
330
2
100
AcDbEntity
  8
Text
370
     9
100
AcDbLine
 10
3568.820409880085
 20
42971.94032469773
 30
0.0
 11
3517.179450655793
 21
42971.94032469773
 31
0.0
  0
LINE
  5
6010
330
2
100
AcDbEntity
  8
Text
370
     9
100
AcDbLine
 10
3480.100731051884
 20
42971.94032469773
 30
0.0
 11
3500.30353813486
 21
42971.94032469773
 31
0.0
  0
LINE
  5
6011
330
2
100
AcDbEntity
  8
Text
370
     9
100
AcDbLine
 10
3449.933099945738
 20
42977.48563587274
 30
0.0
 11
3443.022011447975
 21
42971.94032469773
 31
0.0
  0
LINE
  5
6012
330
2
100
AcDbEntity
  8
Text
370
     9
100
AcDbLine
 10
3452.986835471136
 20
42966.39501352273
 30
0.0
 11
3449.933099945738
 21
42977.48563587274
 31
0.0
  0
LINE
  5
6013
330
2
100
AcDbEntity
  8
Text
370
     9
100
AcDbLine
 10
3459.8979239689
 20
42971.94032469773
 30
0.0
 11
3452.986835471136
 21
42966.39501352273
 31
0.0
  0
LINE
  5
6014
330
2
100
AcDbEntity
  8
Text
370
     9
100
AcDbLine
 10
3480.100731051884
 20
42971.94032469773
 30
0.0
 11
3459.8979239689
 21
42971.94032469773
 31
0.0
  0
LINE
  5
6015
330
2
100
AcDbEntity
  8
Text
370
     9
100
AcDbLine
 10
3402.616397282014
 20
42971.94032469773
 30
0.0
 11
3443.022011447967
 21
42971.94032469773
 31
0.0
  0
LINE
  5
6016
330
2
100
AcDbEntity
  8
Text
370
     9
100
AcDbLine
 10
3392.651573258845
 20
42977.48563587274
 30
0.0
 11
3385.740484761082
 21
42971.94032469773
 31
0.0
  0
LINE
  5
6017
330
2
100
AcDbEntity
  8
Text
370
     9
100
AcDbLine
 10
3395.705308784243
 20
42966.39501352273
 30
0.0
 11
3392.651573258845
 21
42977.48563587274
 31
0.0
  0
LINE
  5
6018
330
2
100
AcDbEntity
  8
Text
370
     9
100
AcDbLine
 10
3402.616397282007
 20
42971.94032469773
 30
0.0
 11
3395.705308784243
 21
42966.39501352273
 31
0.0
  0
LINE
  5
6019
330
2
100
AcDbEntity
  8
Text
370
     9
100
AcDbLine
 10
3345.334870595122
 20
42971.94032469773
 30
0.0
 11
3385.740484761075
 21
42971.94032469773
 31
0.0
  0
LINE
  5
6169
330
2
100
AcDbEntity
  8
Supercrete
370
    50
100
AcDbLine
 10
3527.531010867472
 20
42658.7892938017
 30
0.0
 11
3482.531010867486
 21
42658.7892938017
 31
0.0
  0
LINE
  5
6190
330
2
100
AcDbEntity
  8
Lining
370
    50
100
AcDbLine
 10
3372.531010867464
 20
42360.80080940239
 30
0.0
 11
3372.531010867479
 21
42971.94032469773
 31
0.0
  0
LINE
  5
7204
330
2
100
AcDbEntity
  8
Text
370
     9
100
AcDbLine
 10
3860.876376180637
 20
42709.55812913473
 30
0.0
 11
3855.331065005627
 21
42702.64704063696
 31
0.0
  0
LINE
  5
7205
330
2
100
AcDbEntity
  8
Text
370
     9
100
AcDbLine
 10
3849.785753830616
 20
42712.61186466012
 30
0.0
 11
3860.876376180637
 21
42709.55812913473
 31
0.0
  0
LINE
  5
7206
330
2
100
AcDbEntity
  8
Text
370
     9
100
AcDbLine
 10
3855.331065005627
 20
42719.52295315789
 30
0.0
 11
3849.785753830616
 21
42712.61186466012
 31
0.0
  0
HATCH
  5
7207
330
2
100
AcDbEntity
  8
Hatch
100
AcDbHatch
 10
0.0
 20
0.0
 30
0.0
210
0.0
220
0.0
230
1.0
  2
AR-CONC
 70
     0
 71
     0
 91
        1
 92
        1
 93
        4
 72
     1
 10
3540.531010867468
 20
42752.87262244839
 11
3540.531010867467
 21
42762.87262244841
 72
     1
 10
3540.531010867467
 20
42762.87262244841
 11
3855.331065005627
 21
42762.87262244838
 72
     1
 10
3855.331065005627
 20
42762.87262244838
 11
3855.331065005627
 21
42752.87262244839
 72
     1
 10
3855.331065005627
 20
42752.87262244839
 11
3540.531010867468
 21
42752.87262244839
 97
        0
 75
     0
 76
     1
 52
0.0
 41
1.0
 77
     0
 78
    13
 53
50.0
 43
3532.531010867469
 44
42562.87262244838
 45
7.172601826007534
 46
-0.6275213498259511
 79
     2
 49
0.75
 49
-8.25
 53
355.0
 43
3532.531010867469
 44
42562.87262244838
 45
-1.38751333613
 46
7.521921337000118
 79
     2
 49
0.6
 49
-6.599999999999999
 53
100.4514
 43
3533.128727667469
 44
42562.82032904838
 45
5.785093817140215
 46
6.894395420609535
 79
     2
 49
0.6374019000000001
 49
-7.011421119999999
 53
46.1842
 43
3532.531010867469
 44
42564.87262244838
 45
10.67241048625644
 46
-1.65519014329018
 79
     2
 49
1.125
 49
-12.375
 53
96.6356
 43
3533.420378317469
 44
42564.73468937838
 45
9.346627055487033
 46
9.741178709004417
 79
     2
 49
0.9561028799999998
 49
-10.51713
 53
351.1842000000001
 43
3532.531010867469
 44
42564.87262244838
 45
9.346619451336271
 46
9.741186009253246
 79
     2
 49
0.9
 49
-9.9
 53
21.0
 43
3533.531010867469
 44
42564.37262244838
 45
5.969070521184616
 46
-4.026188906653388
 79
     2
 49
0.75
 49
-8.25
 53
326.0
 43
3533.531010867469
 44
42564.37262244838
 45
2.433153319215817
 46
7.25150045046853
 79
     2
 49
0.6
 49
-6.599999999999999
 53
71.45140000000001
 43
3534.02843319747
 44
42564.03710638839
 45
8.402226285814899
 46
3.225304967099523
 79
     2
 49
0.6374019000000001
 49
-7.011421119999999
 53
37.5
 43
3532.531010867469
 44
42562.87262244838
 45
0.1215985531729067
 46
3.328938538313114
 79
     6
 49
0.0
 49
-6.519999999999999
 49
0.0
 49
-6.7
 49
0.0
 49
-6.625
 53
7.499999999999999
 43
3532.531010867469
 44
42562.87262244838
 45
2.630695374421486
 46
3.944117118823602
 79
     6
 49
0.0
 49
-3.819999999999999
 49
0.0
 49
-6.37
 49
0.0
 49
-2.524999999999999
 53
327.5
 43
3530.301010867469
 44
42562.87262244838
 45
5.33822436172409
 46
-0.225548717343798
 79
     6
 49
0.0
 49
-2.5
 49
0.0
 49
-7.799999999999999
 49
0.0
 49
-10.35
 53
317.5
 43
3529.301010867469
 44
42562.87262244838
 45
5.831861693423862
 46
1.001049823323176
 79
     6
 49
0.0
 49
-3.25
 49
0.0
 49
-5.179999999999999
 49
0.0
 49
-7.349999999999999
 98
        1
 10
3721.857993561418
 20
42760.49749894526
1001
ACAD
1010
3532.531010867469
1020
42562.87262244838
1030
0.0
  0
HATCH
  5
7208
330
2
100
AcDbEntity
  8
Hatch
100
AcDbHatch
 10
0.0
 20
0.0
 30
0.0
210
0.0
220
0.0
230
1.0
  2
AR-SAND
 70
     0
 71
     0
 91
        2
 92
        7
 72
     0
 73
     1
 93
       69
 10
3855.331065005626
 20
42719.52295315788
 10
3849.785753830615
 20
42712.61186466012
 10
3860.876376180638
 20
42709.55812913473
 10
3855.331065005627
 20
42702.64704063695
 10
3855.331065005627
 20
42682.44423355397
 10
3855.331065005627
 20
42677.87262244839
 10
3578.886679242538
 20
42677.87262244841
 10
3578.886679242538
 20
42678.52690048077
 10
3579.317019751664
 20
42678.69253983882
 10
3578.886679242538
 20
42679.05694642649
 10
3578.886679242538
 20
42680.00299566248
 10
3579.317019751665
 20
42680.16863502051
 10
3578.886679242538
 20
42680.53304160818
 10
3578.886679242538
 20
42681.44476304924
 10
3579.317019751664
 20
42681.61040240726
 10
3578.886679242538
 20
42681.97480899494
 10
3578.886679242538
 20
42682.85220691709
 10
3579.317019751659
 20
42683.01784627513
 10
3578.886679242538
 20
42683.38225286279
 10
3578.886679242538
 20
42684.28605295172
 10
3579.248414305663
 20
42684.42528586696
 10
3578.886679242538
 20
42684.7315982805
 10
3578.886679242538
 20
42685.564102716
 10
3579.317019751661
 20
42685.72974207405
 10
3578.886679242538
 20
42686.09414866171
 10
3578.886679242538
 20
42686.9266530972
 10
3579.317019751664
 20
42687.09229245525
 10
3578.886679242538
 20
42687.45669904292
 10
3578.886679242538
 20
42688.36842048398
 10
3579.317019751651
 20
42688.53405984201
 10
3578.886679242538
 20
42688.89846642968
 10
3578.886679242538
 20
42689.77586435184
 10
3579.317019751664
 20
42689.94150370987
 10
3578.886679242538
 20
42690.30591029753
 10
3578.886679242538
 20
42691.20971038647
 10
3579.248414305663
 20
42691.3489433017
 10
3578.886679242538
 20
42691.65525571525
 10
3578.886679242538
 20
42692.48776015077
 10
3579.317019751669
 20
42692.65339950878
 10
3578.886679242538
 20
42693.01780609646
 10
3578.886679242538
 20
42693.92952753753
 10
3579.317019751659
 20
42694.09516689555
 10
3578.886679242538
 20
42694.45957348322
 10
3578.886679242538
 20
42695.47427830906
 10
3579.317019751667
 20
42695.63991766709
 10
3578.886679242538
 20
42696.00432425477
 10
3578.886679242538
 20
42696.98470128568
 10
3579.317019751659
 20
42697.15034064372
 10
3578.886679242538
 20
42697.51474723137
 10
3578.886679242538
 20
42698.46079646736
 10
3579.317019751672
 20
42698.62643582539
 10
3578.886679242538
 20
42698.99084241307
 10
3578.886679242538
 20
42699.90256385413
 10
3579.317019751664
 20
42700.06820321217
 10
3578.886679242538
 20
42700.43260979984
 10
3578.886679242538
 20
42701.31000772199
 10
3579.31701975167
 20
42701.47564708001
 10
3578.886679242538
 20
42701.84005366768
 10
3578.886679242538
 20
42702.74385375661
 10
3579.248414305658
 20
42702.88308667186
 10
3578.886679242538
 20
42703.18939908539
 10
3578.886679242538
 20
42704.02190352091
 10
3579.31701975167
 20
42704.18754287893
 10
3578.886679242538
 20
42704.55194946661
 10
3578.886679242538
 20
42747.87262244839
 10
3581.097399469707
 20
42747.87262244839
 10
3582.097399469708
 20
42747.87262244839
 10
3582.097399469708
 20
42752.87262244839
 10
3855.331065005627
 20
42752.87262244839
 97
        0
 92
        7
 72
     0
 73
     1
 93
       65
 10
3577.175342492404
 20
42704.97708216216
 10
3576.678203560206
 20
42704.97708216216
 10
3577.175342492403
 20
42704.44130139986
 10
3577.175342492403
 20
42703.67262595509
 10
3576.609598114196
 20
42703.67262595509
 10
3577.175342492401
 20
42703.06290715298
 10
3577.175342492402
 20
42702.26518636325
 10
3576.678203560207
 20
42702.26518636325
 10
3577.175342492402
 20
42701.72940560094
 10
3577.175342492402
 20
42700.85774249539
 10
3576.678203560207
 20
42700.85774249539
 10
3577.175342492402
 20
42700.32196173309
 10
3577.175342492402
 20
42699.41597510863
 10
3576.678203560207
 20
42699.41597510863
 10
3577.175342492402
 20
42698.88019434632
 10
3577.175342492402
 20
42697.93987992693
 10
3576.6782035602
 20
42697.93987992693
 10
3577.175342492402
 20
42697.40409916463
 10
3577.175342492403
 20
42696.42945695032
 10
3576.6782035602
 20
42696.42945695032
 10
3577.175342492402
 20
42695.89367618803
 10
3577.175342492402
 20
42694.88470617878
 10
3576.678203560211
 20
42694.88470617878
 10
3577.175342492403
 20
42694.34892541647
 10
3577.175342492402
 20
42693.44293879203
 10
3576.678203560204
 20
42693.44293879203
 10
3577.175342492402
 20
42692.90715802972
 10
3577.175342492402
 20
42692.13848258495
 10
3576.609598114192
 20
42692.13848258495
 10
3577.175342492403
 20
42691.52876378282
 10
3577.175342492402
 20
42690.7310429931
 10
3576.678203560211
 20
42690.7310429931
 10
3577.175342492402
 20
42690.19526223078
 10
3577.175342492402
 20
42689.32359912525
 10
3576.678203560211
 20
42689.32359912525
 10
3577.175342492403
 20
42688.78781836295
 10
3577.175342492402
 20
42687.88183173849
 10
3576.678203560204
 20
42687.88183173849
 10
3577.175342492403
 20
42687.34605097617
 10
3577.175342492402
 20
42686.51928135728
 10
3576.678203560204
 20
42686.51928135728
 10
3577.175342492402
 20
42685.98350059497
 10
3577.175342492402
 20
42685.2148251502
 10
3576.609598114202
 20
42685.21482515019
 10
3577.175342492402
 20
42684.60510634809
 10
3577.175342492403
 20
42683.80738555834
 10
3576.678203560208
 20
42683.80738555834
 10
3577.175342492402
 20
42683.27160479604
 10
3577.175342492402
 20
42682.3999416905
 10
3576.678203560207
 20
42682.3999416905
 10
3577.175342492402
 20
42681.86416092818
 10
3577.175342492402
 20
42680.95817430374
 10
3576.678203560211
 20
42680.95817430374
 10
3577.175342492402
 20
42680.42239354143
 10
3577.175342492402
 20
42679.48207912205
 10
3576.678203560218
 20
42679.48207912205
 10
3577.175342492403
 20
42678.94629835973
 10
3577.175342492402
 20
42677.97165614543
 10
3576.678203560211
 20
42677.97165614543
 10
3576.770094702733
 20
42677.8726224484
 10
3540.531010867475
 20
42677.8726224484
 10
3540.531010867468
 20
42752.87262244839
 10
3573.964622265233
 20
42752.87262244839
 10
3573.964622265233
 20
42747.87262244839
 10
3577.175342492401
 20
42747.87262244839
 97
        0
 75
     0
 76
     1
 52
0.0
 41
5.0
 77
     0
 78
     4
 53
322.5
 43
3540.531010867468
 44
42752.87262244839
 45
-0.3149667905480408
 46
-9.634118845065792
 79
     6
 49
0.0
 49
-7.599999999999999
 49
0.0
 49
-8.5
 49
0.0
 49
-8.125
 53
352.5
 43
3540.531010867468
 44
42752.87262244839
 45
8.848883526338635
 46
-14.1107303261487
 79
     6
 49
0.0
 49
-4.099999999999999
 49
0.0
 49
-6.85
 49
0.0
 49
-2.625
 53
32.50000000000003
 43
3534.381010867468
 44
42752.87262244839
 45
15.57070930875747
 46
-0.0282952676848225
 79
     6
 49
0.0
 49
-2.5
 49
0.0
 49
-9.0
 49
0.0
 49
-11.75
 53
42.50000000000001
 43
3534.381010867468
 44
42752.87262244839
 45
15.03063302286146
 46
-4.388377824671245
 79
     6
 49
0.0
 49
-1.25
 49
0.0
 49
-5.899999999999999
 49
0.0
 49
-6.75
 47
0.5938998768884522
 98
        2
 10
3729.736787202659
 20
42726.28390732332
 10
3563.365013976254
 20
42716.18758419054
1001
ACAD
1010
3537.531010867468
1020
42572.87262244841
1030
0.0
  0
HATCH
  5
7209
330
2
100
AcDbEntity
  8
Fastenings and sealants
100
AcDbHatch
 10
0.0
 20
0.0
 30
0.0
210
0.0
220
0.0
230
1.0
  2
SOLID
 70
     1
 71
     0
 91
        1
 92
        5
 93
        5
 72
     3
 10
3535.531010867483
 20
42735.3053406431
 11
0.0000000000000005
 21
-7.567281805293022
 40
0.6607392361815695
 50
90.00000000001277
 51
270.000000000003
 73
     1
 72
     1
 10
3530.53101086747
 20
42735.47397712286
 11
3530.53101086747
 21
42762.87262244837
 72
     2
 10
3535.531010867452
 20
42773.70698502045
 40
11.93245206750233
 50
245.2269304469098
 51
294.7730695532582
 73
     1
 72
     1
 10
3540.531010867468
 20
42762.87262244838
 11
3540.531010867468
 21
42752.8726224484
 72
     1
 10
3540.531010867468
 20
42752.8726224484
 11
3540.53101086747
 21
42735.47397712367
 97
        0
 75
     0
 76
     1
 47
0.211968023468343
 98
        1
 10
3537.119692026237
 20
42752.18408343267
450
        0
451
        0
460
0.0
461
0.0
452
        1
462
1.0
453
        2
463
0.0
 63
     5
421
      255
463
1.0
 63
     7
421
 16777215
470
LINEAR
1001
ACAD
1010
3527.53101086747
1020
42562.87262244843
1030
0.0
  0
LINE
  5
720A
330
2
100
AcDbEntity
  8
Supercrete
370
    50
100
AcDbLine
 10
3540.531010867468
 20
42752.87262244839
 30
0.0
 11
3540.531010867475
 21
42677.87262244841
 31
0.0
  0
LINE
  5
720B
330
2
100
AcDbEntity
  8
Supercrete
370
    50
100
AcDbLine
 10
3540.531010867468
 20
42752.87262244839
 30
0.0
 11
3855.331065005627
 21
42752.87262244839
 31
0.0
  0
LINE
  5
720C
330
2
100
AcDbEntity
  8
Lining
370
    50
100
AcDbLine
 10
3540.531010867468
 20
42762.87262244838
 30
0.0
 11
3855.331065005627
 21
42762.8726224484
 31
0.0
  0
LINE
  5
720D
330
2
100
AcDbEntity
  8
Supercrete
370
    50
100
AcDbLine
 10
3540.53101086749
 20
42677.87262244841
 30
0.0
 11
3855.331065005627
 21
42677.8726224484
 31
0.0
  0
LINE
  5
720E
330
2
100
AcDbEntity
  8
Text
370
     9
100
AcDbLine
 10
3855.331065005627
 20
42682.44423355397
 30
0.0
 11
3855.331065005627
 21
42702.64704063695
 31
0.0
  0
ELLIPSE
  5
7212
330
2
100
AcDbEntity
  8
Fastenings and sealants
100
AcDbEllipse
 10
3535.531010867483
 20
42735.3053406431
 30
0.0
 11
0.0000000000000005
 21
-7.567281805293022
 31
0.0
210
0.0
220
0.0
230
-1.0
 40
0.6607392361815695
 41
0.0
 42
6.283185307179586
  0
LINE
  5
7213
330
2
100
AcDbEntity
  8
Lining
370
    50
100
AcDbLine
 10
3540.531010867468
 20
42752.8726224484
 30
0.0
 11
3540.531010867468
 21
42762.87262244838
 31
0.0
  0
ARC
  5
7214
330
2
100
AcDbEntity
  8
Fastenings and sealants
100
AcDbCircle
 10
3535.531010867503
 20
42773.70698502043
 30
0.0
 40
11.93245206750236
100
AcDbArc
 50
245.2269304466993
 51
294.773069553017
  0
LINE
  5
7217
330
2
100
AcDbEntity
  8
Insulation
  6
BATTING
 48
7.0
100
AcDbLine
 10
3533.264193114505
 20
42662.87262244841
 30
0.0
 11
3855.331065005626
 21
42662.87262244841
 31
0.0
  0
LINE
  5
7218
330
2
100
AcDbEntity
  8
Lining
  6
HIDDEN
 48
10.0
370
    50
100
AcDbLine
 10
3530.531010867482
 20
42762.87262244836
 30
0.0
 11
3530.531010867461
 21
42562.87262244843
 31
0.0
  0
LINE
  5
722F
330
2
100
AcDbEntity
  8
Supercrete
100
AcDbLine
 10
3432.531010867471
 20
42668.7892938017
 30
0.0
 11
3472.531010867479
 21
42668.7892938017
 31
0.0
  0
LINE
  5
7230
330
2
100
AcDbEntity
  8
Supercrete
100
AcDbLine
 10
3432.531010867471
 20
42668.7892938017
 30
0.0
 11
3422.531010867461
 21
42658.7892938017
 31
0.0
  0
LINE
  5
7231
330
2
100
AcDbEntity
  8
Supercrete
100
AcDbLine
 10
3482.531010867486
 20
42658.7892938017
 30
0.0
 11
3472.531010867479
 21
42668.7892938017
 31
0.0
  0
LINE
  5
7232
330
2
100
AcDbEntity
  8
Supercrete
370
    50
100
AcDbLine
 10
3422.531010867457
 20
42658.7892938017
 30
0.0
 11
3377.531010867472
 21
42658.7892938017
 31
0.0
  0
LINE
  5
7233
330
2
100
AcDbEntity
  8
Supercrete
370
    50
100
AcDbLine
 10
3527.531010867472
 20
42668.7892938017
 30
0.0
 11
3482.531010867486
 21
42668.7892938017
 31
0.0
  0
LINE
  5
7234
330
2
100
AcDbEntity
  8
Supercrete
370
    50
100
AcDbLine
 10
3422.531010867457
 20
42668.7892938017
 30
0.0
 11
3377.531010867472
 21
42668.7892938017
 31
0.0
  0
LINE
  5
7235
330
2
100
AcDbEntity
  8
Supercrete
100
AcDbLine
 10
3432.531010867471
 20
42678.7892938017
 30
0.0
 11
3472.531010867479
 21
42678.7892938017
 31
0.0
  0
LINE
  5
7236
330
2
100
AcDbEntity
  8
Supercrete
100
AcDbLine
 10
3432.531010867471
 20
42678.7892938017
 30
0.0
 11
3422.531010867461
 21
42668.7892938017
 31
0.0
  0
LINE
  5
7237
330
2
100
AcDbEntity
  8
Supercrete
100
AcDbLine
 10
3482.531010867486
 20
42668.7892938017
 30
0.0
 11
3472.531010867479
 21
42678.7892938017
 31
0.0
  0
LINE
  5
7238
330
2
100
AcDbEntity
  8
Supercrete
370
    50
100
AcDbLine
 10
3377.531010867472
 20
42668.7892938017
 30
0.0
 11
3377.531010867479
 21
42971.94032469773
 31
0.0
  0
LINE
  5
7239
330
2
100
AcDbEntity
  8
Supercrete
370
    50
100
AcDbLine
 10
3527.531010867472
 20
42668.7892938017
 30
0.0
 11
3527.531010867479
 21
42971.94032469773
 31
0.0
  0
ARC
  5
723D
330
2
100
AcDbEntity
  8
Fastenings and sealants
100
AcDbCircle
 10
3529.031010867444
 20
42764.91598549883
 30
0.0
 40
2.534823969435079
100
AcDbArc
 50
233.7182055375734
 51
306.2817944612915
  0
ARC
  5
723E
330
2
100
AcDbEntity
  8
Fastenings and sealants
100
AcDbCircle
 10
3529.031010867444
 20
42725.63983804461
 30
0.0
 40
2.534823969435079
100
AcDbArc
 50
53.71820553855848
 51
126.2817944626725
  0
HATCH
  5
7245
330
2
100
AcDbEntity
  8
Fastenings and sealants
100
AcDbHatch
 10
0.0
 20
0.0
 30
0.0
210
0.0
220
0.0
230
1.0
  2
SOLID
 70
     1
 71
     0
 91
        1
 92
        7
 72
     1
 73
     1
 93
        4
 10
3530.531010867482
 20
42762.87262244839
 42
-0.3276406126449343
 10
3527.531010867475
 20
42762.87262244833
 42
0.0
 10
3527.531010867474
 20
42727.68320109511
 42
-0.3276406126445061
 10
3530.531010867478
 20
42727.68320109507
 42
0.0
 97
        0
 75
     0
 76
     1
 47
0.1413229079900893
 98
        1
 10
3529.546259365569
 20
42757.64321957282
450
        0
451
        0
460
0.0
461
0.0
452
        1
462
1.0
453
        2
463
0.0
 63
     5
421
      255
463
1.0
 63
     7
421
 16777215
470
LINEAR
1001
ACAD
1010
3527.531010867474
1020
42727.68320109511
1030
0.0
  0
HATCH
  5
7246
330
2
100
AcDbEntity
  8
Fastenings and sealants
100
AcDbHatch
 10
0.0
 20
0.0
 30
0.0
210
0.0
220
0.0
230
1.0
  2
SOLID
 70
     1
 71
     0
 91
        1
 92
        7
 72
     1
 73
     1
 93
        4
 10
3530.531010867566
 20
42598.06204380168
 42
-0.3276406126449343
 10
3527.531010867559
 20
42598.06204380164
 42
0.0
 10
3527.531010867558
 20
42562.87262244841
 42
-0.3276406126445061
 10
3530.531010867562
 20
42562.87262244836
 42
0.0
 97
        0
 75
     0
 76
     1
 47
0.1413229079900893
 98
        1
 10
3529.546259365652
 20
42592.83264092612
450
        0
451
        0
460
0.0
461
0.0
452
        1
462
1.0
453
        2
463
0.0
 63
     5
421
      255
463
1.0
 63
     7
421
 16777215
470
LINEAR
1001
ACAD
1010
3527.531010867474
1020
42727.68320109511
1030
0.0
  0
ARC
  5
7247
330
2
100
AcDbEntity
  8
Fastenings and sealants
100
AcDbCircle
 10
3529.031010867527
 20
42600.10540685213
 30
0.0
 40
2.534823969435079
100
AcDbArc
 50
233.7182055375732
 51
306.2817944612912
  0
ARC
  5
7248
330
2
100
AcDbEntity
  8
Fastenings and sealants
100
AcDbCircle
 10
3529.031010867527
 20
42560.82925939792
 30
0.0
 40
2.534823969435079
100
AcDbArc
 50
53.71820553855831
 51
126.2817944626723
  0
HATCH
  5
7249
330
2
100
AcDbEntity
  8
Fastenings and sealants
100
AcDbHatch
 10
0.0
 20
0.0
 30
0.0
210
0.0
220
0.0
230
1.0
  2
SOLID
 70
     1
 71
     0
 91
        3
 92
        1
 93
        3
 72
     1
 10
3395.098292673016
 20
42668.78929380169
 11
3395.204420071876
 21
42668.78880206049
 72
     1
 10
3395.204420071876
 20
42668.78880206049
 11
3395.169048910787
 21
42668.7892938017
 72
     1
 10
3395.169048910787
 20
42668.7892938017
 11
3395.098292673016
 21
42668.78929380169
 97
        0
 92
        1
 93
      227
 72
     1
 10
3395.098292671504
 20
42658.78929380169
 11
3394.992165272383
 21
42658.7897855429
 72
     1
 10
3394.992165272383
 20
42658.7897855429
 11
3394.886058748179
 21
42658.79126066978
 72
     1
 10
3394.886058748179
 20
42658.79126066978
 11
3394.7799939697
 21
42658.79371889216
 72
     1
 10
3394.7799939697
 20
42658.79371889216
 11
3394.67399179706
 21
42658.79715972661
 72
     1
 10
3394.67399179706
 20
42658.79715972661
 11
3394.568073084665
 21
42658.80158249623
 72
     1
 10
3394.568073084665
 20
42658.80158249623
 11
3394.462258665882
 21
42658.80698633104
 72
     1
 10
3394.462258665882
 20
42658.80698633104
 11
3394.356569350176
 21
42658.81337016835
 72
     1
 10
3394.356569350176
 20
42658.81337016835
 11
3394.251025930485
 21
42658.82073275216
 72
     1
 10
3394.251025930485
 20
42658.82073275216
 11
3394.145649164856
 21
42658.82907263454
 72
     1
 10
3394.145649164856
 20
42658.82907263454
 11
3394.04045977932
 21
42658.83838817499
 72
     1
 10
3394.04045977932
 20
42658.83838817499
 11
3393.935478467503
 21
42658.84867754115
 72
     1
 10
3393.935478467503
 20
42658.84867754115
 11
3393.830725876881
 21
42658.85993870902
 72
     1
 10
3393.830725876881
 20
42658.85993870902
 11
3393.726222611151
 21
42658.87216946403
 72
     1
 10
3393.726222611151
 20
42658.87216946403
 11
3393.621989227588
 21
42658.88536739979
 72
     1
 10
3393.621989227588
 20
42658.88536739979
 11
3393.51804622823
 21
42658.89952992061
 72
     1
 10
3393.51804622823
 20
42658.89952992061
 11
3393.414414057685
 21
42658.91465424079
 72
     1
 10
3393.414414057685
 20
42658.91465424079
 11
3393.311113100166
 21
42658.93073738543
 72
     1
 10
3393.311113100166
 20
42658.93073738543
 11
3393.20816367443
 21
42658.94777619104
 72
     1
 10
3393.20816367443
 20
42658.94777619104
 11
3393.10558603043
 21
42658.96576730612
 72
     1
 10
3393.10558603043
 20
42658.96576730612
 11
3393.00340034401
 21
42658.98470719201
 72
     1
 10
3393.00340034401
 20
42658.98470719201
 11
3392.901626714914
 21
42659.00459212316
 72
     1
 10
3392.901626714914
 20
42659.00459212316
 11
3392.800285164553
 21
42659.02541818813
 72
     1
 10
3392.800285164553
 20
42659.02541818813
 11
3392.699395622394
 21
42659.04718129094
 72
     1
 10
3392.699395622394
 20
42659.04718129094
 11
3392.59897793685
 21
42659.06987714994
 72
     1
 10
3392.59897793685
 20
42659.06987714994
 11
3392.499051856211
 21
42659.09350130238
 72
     1
 10
3392.499051856211
 20
42659.09350130238
 11
3392.399637036405
 21
42659.11804910034
 72
     1
 10
3392.399637036405
 20
42659.11804910034
 11
3392.300753033939
 21
42659.1435157158
 72
     1
 10
3392.300753033939
 20
42659.1435157158
 11
3392.202419299003
 21
42659.16989613894
 72
     1
 10
3392.202419299003
 20
42659.16989613894
 11
3392.104655169324
 21
42659.19718518203
 72
     1
 10
3392.104655169324
 20
42659.19718518203
 11
3392.007479879222
 21
42659.22537747629
 72
     1
 10
3392.007479879222
 20
42659.22537747629
 11
3391.910912539683
 21
42659.25446747706
 72
     1
 10
3391.910912539683
 20
42659.25446747706
 11
3391.814972148501
 21
42659.28444946184
 72
     1
 10
3391.814972148501
 20
42659.28444946184
 11
3391.719677573252
 21
42659.31531753426
 72
     1
 10
3391.719677573252
 20
42659.31531753426
 11
3391.625047560619
 21
42659.34706562188
 72
     1
 10
3391.625047560619
 20
42659.34706562188
 11
3391.531100723216
 21
42659.37968747979
 72
     1
 10
3391.531100723216
 20
42659.37968747979
 11
3391.437855539119
 21
42659.41317669211
 72
     1
 10
3391.437855539119
 20
42659.41317669211
 11
3391.345330351553
 21
42659.44752667117
 72
     1
 10
3391.345330351553
 20
42659.44752667117
 11
3391.253543356533
 21
42659.48273066057
 72
     1
 10
3391.253543356533
 20
42659.48273066057
 11
3391.162512611742
 21
42659.51878173551
 72
     1
 10
3391.162512611742
 20
42659.51878173551
 11
3391.072256020287
 21
42659.55567280554
 72
     1
 10
3391.072256020287
 20
42659.55567280554
 11
3390.982791335706
 21
42659.59339661385
 72
     1
 10
3390.982791335706
 20
42659.59339661385
 11
3390.89413615725
 21
42659.63194573997
 72
     1
 10
3390.89413615725
 20
42659.63194573997
 11
3390.80630791967
 21
42659.67131260242
 72
     1
 10
3390.80630791967
 20
42659.67131260242
 11
3390.719323901941
 21
42659.71148945689
 72
     1
 10
3390.719323901941
 20
42659.71148945689
 11
3390.633201210849
 21
42659.75246840132
 72
     1
 10
3390.633201210849
 20
42659.75246840132
 11
3390.547956788505
 21
42659.7942413752
 72
     1
 10
3390.547956788505
 20
42659.7942413752
 11
3390.463607400358
 21
42659.83680016132
 72
     1
 10
3390.463607400358
 20
42659.83680016132
 11
3390.380169639987
 21
42659.88013638944
 72
     1
 10
3390.380169639987
 20
42659.88013638944
 11
3390.297659915665
 21
42659.92424153497
 72
     1
 10
3390.297659915665
 20
42659.92424153497
 11
3390.216094460475
 21
42659.96910692233
 72
     1
 10
3390.216094460475
 20
42659.96910692233
 11
3390.135489316058
 21
42660.01472372752
 72
     1
 10
3390.135489316058
 20
42660.01472372752
 11
3390.055860337019
 21
42660.0610829775
 72
     1
 10
3390.055860337019
 20
42660.0610829775
 11
3389.977223187616
 21
42660.10817555286
 72
     1
 10
3389.977223187616
 20
42660.10817555286
 11
3389.899593334079
 21
42660.15599219147
 72
     1
 10
3389.899593334079
 20
42660.15599219147
 11
3389.822986046232
 21
42660.20452348758
 72
     1
 10
3389.822986046232
 20
42660.20452348758
 11
3389.747416392889
 21
42660.25375989592
 72
     1
 10
3389.747416392889
 20
42660.25375989592
 11
3389.672899238361
 21
42660.30369173082
 72
     1
 10
3389.672899238361
 20
42660.30369173082
 11
3389.599449239308
 21
42660.35430917158
 72
     1
 10
3389.599449239308
 20
42660.35430917158
 11
3389.527080843863
 21
42660.40560226147
 72
     1
 10
3389.527080843863
 20
42660.40560226147
 11
3389.455808285418
 21
42660.45756091142
 72
     1
 10
3389.455808285418
 20
42660.45756091142
 11
3389.385645583902
 21
42660.5101749023
 72
     1
 10
3389.385645583902
 20
42660.5101749023
 11
3389.316606540098
 21
42660.56343388407
 72
     1
 10
3389.316606540098
 20
42660.56343388407
 11
3389.248704734008
 21
42660.61732738058
 72
     1
 10
3389.248704734008
 20
42660.61732738058
 11
3389.181953520749
 21
42660.67184479233
 72
     1
 10
3389.181953520749
 20
42660.67184479233
 11
3389.116366030633
 21
42660.72697539512
 72
     1
 10
3389.116366030633
 20
42660.72697539512
 11
3389.051955164652
 21
42660.78270834497
 72
     1
 10
3389.051955164652
 20
42660.78270834497
 11
3388.988733591513
 21
42660.83903268017
 72
     1
 10
3388.988733591513
 20
42660.83903268017
 11
3388.92671374792
 21
42660.89593732066
 72
     1
 10
3388.92671374792
 20
42660.89593732066
 11
3388.865907831564
 21
42660.953411075
 72
     1
 10
3388.865907831564
 20
42660.953411075
 11
3388.80632780408
 21
42661.01144263615
 72
     1
 10
3388.80632780408
 20
42661.01144263615
 11
3388.747985383254
 21
42661.07002059202
 72
     1
 10
3388.747985383254
 20
42661.07002059202
 11
3388.690892045996
 21
42661.12913341896
 72
     1
 10
3388.690892045996
 20
42661.12913341896
 11
3388.635059021487
 21
42661.1887694905
 72
     1
 10
3388.635059021487
 20
42661.1887694905
 11
3388.58049729243
 21
42661.24891707552
 72
     1
 10
3388.58049729243
 20
42661.24891707552
 11
3388.527217590893
 21
42661.30956434362
 72
     1
 10
3388.527217590893
 20
42661.30956434362
 11
3388.475230396486
 21
42661.37069936625
 72
     1
 10
3388.475230396486
 20
42661.37069936625
 11
3388.424545935233
 21
42661.43231011791
 72
     1
 10
3388.424545935233
 20
42661.43231011791
 11
3388.37517417658
 21
42661.49438447919
 72
     1
 10
3388.37517417658
 20
42661.49438447919
 11
3388.327124831411
 21
42661.55691024206
 72
     1
 10
3388.327124831411
 20
42661.55691024206
 11
3388.280407351643
 21
42661.61987510588
 72
     1
 10
3388.280407351643
 20
42661.61987510588
 11
3388.235030925533
 21
42661.68326668742
 72
     1
 10
3388.235030925533
 20
42661.68326668742
 11
3388.191004478767
 21
42661.74707251717
 72
     1
 10
3388.191004478767
 20
42661.74707251717
 11
3388.148336671437
 21
42661.81128004449
 72
     1
 10
3388.148336671437
 20
42661.81128004449
 11
3388.107035896064
 21
42661.87587663978
 72
     1
 10
3388.107035896064
 20
42661.87587663978
 11
3388.067110276106
 21
42661.94084959805
 72
     1
 10
3388.067110276106
 20
42661.94084959805
 11
3388.028567665307
 21
42662.00618613825
 72
     1
 10
3388.028567665307
 20
42662.00618613825
 11
3387.991415644211
 21
42662.07187340999
 72
     1
 10
3387.991415644211
 20
42662.07187340999
 11
3387.955661520994
 21
42662.13789849199
 72
     1
 10
3387.955661520994
 20
42662.13789849199
 11
3387.921312328098
 21
42662.20424839768
 72
     1
 10
3387.921312328098
 20
42662.20424839768
 11
3387.888374822037
 21
42662.2709100761
 72
     1
 10
3387.888374822037
 20
42662.2709100761
 11
3387.856855481452
 21
42662.33787041544
 72
     1
 10
3387.856855481452
 20
42662.33787041544
 11
3387.826760505987
 21
42662.40511624451
 72
     1
 10
3387.826760505987
 20
42662.40511624451
 11
3387.798095815369
 21
42662.47263433641
 72
     1
 10
3387.798095815369
 20
42662.47263433641
 11
3387.770867047742
 21
42662.54041141099
 72
     1
 10
3387.770867047742
 20
42662.54041141099
 11
3387.745079559042
 21
42662.60843413584
 72
     1
 10
3387.745079559042
 20
42662.60843413584
 11
3387.72073842142
 21
42662.67668913171
 72
     1
 10
3387.72073842142
 20
42662.67668913171
 11
3387.697848422718
 21
42662.74516297329
 72
     1
 10
3387.697848422718
 20
42662.74516297329
 11
3387.67641406538
 21
42662.81384219184
 72
     1
 10
3387.67641406538
 20
42662.81384219184
 11
3387.656439565513
 21
42662.88271327784
 72
     1
 10
3387.656439565513
 20
42662.88271327784
 11
3387.637928851927
 21
42662.95176268512
 72
     1
 10
3387.637928851927
 20
42662.95176268512
 11
3387.620885565633
 21
42663.0209768319
 72
     1
 10
3387.620885565633
 20
42663.0209768319
 11
3387.605313059029
 21
42663.09034210393
 72
     1
 10
3387.605313059029
 20
42663.09034210393
 11
3387.591214395129
 21
42663.15984485737
 72
     1
 10
3387.591214395129
 20
42663.15984485737
 11
3387.578592347114
 21
42663.22947142108
 72
     1
 10
3387.578592347114
 20
42663.22947142108
 11
3387.567449397676
 21
42663.29920810003
 72
     1
 10
3387.567449397676
 20
42663.29920810003
 11
3387.557787738604
 21
42663.36904117706
 72
     1
 10
3387.557787738604
 20
42663.36904117706
 11
3387.549609270344
 21
42663.43895691618
 72
     1
 10
3387.549609270344
 20
42663.43895691618
 11
3387.542915601529
 21
42663.5089415655
 72
     1
 10
3387.542915601529
 20
42663.5089415655
 11
3387.537708048788
 21
42663.57898135899
 72
     1
 10
3387.537708048788
 20
42663.57898135899
 11
3387.533987636446
 21
42663.64906252037
 72
     1
 10
3387.533987636446
 20
42663.64906252037
 11
3387.53175509628
 21
42663.71917126457
 72
     1
 10
3387.53175509628
 20
42663.71917126457
 11
3387.531010867431
 21
42663.78929380172
 72
     1
 10
3387.531010867431
 20
42663.78929380172
 11
3387.53175509628
 21
42663.8594163388
 72
     1
 10
3387.53175509628
 20
42663.8594163388
 11
3387.533987636444
 21
42663.92952508307
 72
     1
 10
3387.533987636444
 20
42663.92952508307
 11
3387.537708048789
 21
42663.99960624432
 72
     1
 10
3387.537708048789
 20
42663.99960624432
 11
3387.542915601527
 21
42664.06964603793
 72
     1
 10
3387.542915601527
 20
42664.06964603793
 11
3387.549609270334
 21
42664.1396306871
 72
     1
 10
3387.549609270334
 20
42664.1396306871
 11
3387.557787738612
 21
42664.20954642632
 72
     1
 10
3387.557787738612
 20
42664.20954642632
 11
3387.567449397668
 21
42664.2793795033
 72
     1
 10
3387.567449397668
 20
42664.2793795033
 11
3387.578592347099
 21
42664.3491161822
 72
     1
 10
3387.578592347099
 20
42664.3491161822
 11
3387.591214395103
 21
42664.41874274596
 72
     1
 10
3387.591214395103
 20
42664.41874274596
 11
3387.605313059023
 21
42664.48824549938
 72
     1
 10
3387.605313059023
 20
42664.48824549938
 11
3387.620885565647
 21
42664.55761077144
 72
     1
 10
3387.620885565647
 20
42664.55761077144
 11
3387.637928851925
 21
42664.62682491823
 72
     1
 10
3387.637928851925
 20
42664.62682491823
 11
3387.656439565545
 21
42664.69587432572
 72
     1
 10
3387.656439565545
 20
42664.69587432572
 11
3387.676414065449
 21
42664.76474541186
 72
     1
 10
3387.676414065449
 20
42664.76474541186
 11
3387.697848422741
 21
42664.83342463001
 72
     1
 10
3387.697848422741
 20
42664.83342463001
 11
3387.720738421437
 21
42664.9018984715
 72
     1
 10
3387.720738421437
 20
42664.9018984715
 11
3387.745079559003
 21
42664.97015346744
 72
     1
 10
3387.745079559003
 20
42664.97015346744
 11
3387.770867047812
 21
42665.03817619266
 72
     1
 10
3387.770867047812
 20
42665.03817619266
 11
3387.798095815355
 21
42665.10595326679
 72
     1
 10
3387.798095815355
 20
42665.10595326679
 11
3387.826760505962
 21
42665.17347135862
 72
     1
 10
3387.826760505962
 20
42665.17347135862
 11
3387.856855481388
 21
42665.24071718796
 72
     1
 10
3387.856855481388
 20
42665.24071718796
 11
3387.888374822016
 21
42665.30767752721
 72
     1
 10
3387.888374822016
 20
42665.30767752721
 11
3387.921312328127
 21
42665.3743392058
 72
     1
 10
3387.921312328127
 20
42665.3743392058
 11
3387.955661520928
 21
42665.44068911151
 72
     1
 10
3387.955661520928
 20
42665.44068911151
 11
3387.991415644267
 21
42665.50671419339
 72
     1
 10
3387.991415644267
 20
42665.50671419339
 11
3388.028567665249
 21
42665.57240146505
 72
     1
 10
3388.028567665249
 20
42665.57240146505
 11
3388.067110276189
 21
42665.63773800552
 72
     1
 10
3388.067110276189
 20
42665.63773800552
 11
3388.107035896175
 21
42665.70271096393
 72
     1
 10
3388.107035896175
 20
42665.70271096393
 11
3388.148336671472
 21
42665.76730755915
 72
     1
 10
3388.148336671472
 20
42665.76730755915
 11
3388.191004478862
 21
42665.8315150864
 72
     1
 10
3388.191004478862
 20
42665.8315150864
 11
3388.235030925344
 21
42665.89532091585
 72
     1
 10
3388.235030925344
 20
42665.89532091585
 11
3388.280407351429
 21
42665.95871249725
 72
     1
 10
3388.280407351429
 20
42665.95871249725
 11
3388.327124831476
 21
42666.02167736166
 72
     1
 10
3388.327124831476
 20
42666.02167736166
 11
3388.375174176683
 21
42666.08420312394
 72
     1
 10
3388.375174176683
 20
42666.08420312394
 11
3388.424545935428
 21
42666.14627748584
 72
     1
 10
3388.424545935428
 20
42666.14627748584
 11
3388.475230396517
 21
42666.20788823713
 72
     1
 10
3388.475230396517
 20
42666.20788823713
 11
3388.527217590837
 21
42666.26902325951
 72
     1
 10
3388.527217590837
 20
42666.26902325951
 11
3388.58049729248
 21
42666.32967052825
 72
     1
 10
3388.58049729248
 20
42666.32967052825
 11
3388.635059021257
 21
42666.3898181128
 72
     1
 10
3388.635059021257
 20
42666.3898181128
 11
3388.69089204605
 21
42666.44945418463
 72
     1
 10
3388.69089204605
 20
42666.44945418463
 11
3388.74798538292
 21
42666.50856701112
 72
     1
 10
3388.74798538292
 20
42666.50856701112
 11
3388.806327804014
 21
42666.5671449669
 72
     1
 10
3388.806327804014
 20
42666.5671449669
 11
3388.865907831404
 21
42666.62517652862
 72
     1
 10
3388.865907831404
 20
42666.62517652862
 11
3388.926713747919
 21
42666.6826502828
 72
     1
 10
3388.926713747919
 20
42666.6826502828
 11
3388.98873359184
 21
42666.73955492352
 72
     1
 10
3388.98873359184
 20
42666.73955492352
 11
3389.05195516468
 21
42666.79587925797
 72
     1
 10
3389.05195516468
 20
42666.79587925797
 11
3389.116366030362
 21
42666.85161220781
 72
     1
 10
3389.116366030362
 20
42666.85161220781
 11
3389.181953520432
 21
42666.90674281091
 72
     1
 10
3389.181953520432
 20
42666.90674281091
 11
3389.248704733577
 21
42666.96126022267
 72
     1
 10
3389.248704733577
 20
42666.96126022267
 11
3389.316606540401
 21
42667.01515371962
 72
     1
 10
3389.316606540401
 20
42667.01515371962
 11
3389.385645583813
 21
42667.068412701
 72
     1
 10
3389.385645583813
 20
42667.068412701
 11
3389.455808285327
 21
42667.1210266915
 72
     1
 10
3389.455808285327
 20
42667.1210266915
 11
3389.527080842878
 21
42667.17298534151
 72
     1
 10
3389.527080842878
 20
42667.17298534151
 11
3389.599449239053
 21
42667.22427843209
 72
     1
 10
3389.599449239053
 20
42667.22427843209
 11
3389.672899238223
 21
42667.27489587259
 72
     1
 10
3389.672899238223
 20
42667.27489587259
 11
3389.747416392797
 21
42667.32482770766
 72
     1
 10
3389.747416392797
 20
42667.32482770766
 11
3389.822986046667
 21
42667.37406411571
 72
     1
 10
3389.822986046667
 20
42667.37406411571
 11
3389.899593334062
 21
42667.42259541172
 72
     1
 10
3389.899593334062
 20
42667.42259541172
 11
3389.977223187815
 21
42667.47041205046
 72
     1
 10
3389.977223187815
 20
42667.47041205046
 11
3390.055860337689
 21
42667.51750462598
 72
     1
 10
3390.055860337689
 20
42667.51750462598
 11
3390.135489316143
 21
42667.56386387585
 72
     1
 10
3390.135489316143
 20
42667.56386387585
 11
3390.216094460694
 21
42667.60948068077
 72
     1
 10
3390.216094460694
 20
42667.60948068077
 11
3390.297659916473
 21
42667.65434606856
 72
     1
 10
3390.297659916473
 20
42667.65434606856
 11
3390.380169639595
 21
42667.69845121419
 72
     1
 10
3390.380169639595
 20
42667.69845121419
 11
3390.463607400042
 21
42667.74178744185
 72
     1
 10
3390.463607400042
 20
42667.74178744185
 11
3390.547956788408
 21
42667.78434622828
 72
     1
 10
3390.547956788408
 20
42667.78434622828
 11
3390.633201210905
 21
42667.82611920197
 72
     1
 10
3390.633201210905
 20
42667.82611920197
 11
3390.719323902115
 21
42667.86709814641
 72
     1
 10
3390.719323902115
 20
42667.86709814641
 11
3390.806307919785
 21
42667.90727500086
 72
     1
 10
3390.806307919785
 20
42667.90727500086
 11
3390.894136157083
 21
42667.94664186342
 72
     1
 10
3390.894136157083
 20
42667.94664186342
 11
3390.982791336187
 21
42667.9851909895
 72
     1
 10
3390.982791336187
 20
42667.9851909895
 11
3391.0722560205
 21
42668.0229147978
 72
     1
 10
3391.0722560205
 20
42668.0229147978
 11
3391.162512612027
 21
42668.05980586792
 72
     1
 10
3391.162512612027
 20
42668.05980586792
 11
3391.253543356896
 21
42668.09585694306
 72
     1
 10
3391.253543356896
 20
42668.09585694306
 11
3391.345330350725
 21
42668.13106093215
 72
     1
 10
3391.345330350725
 20
42668.13106093215
 11
3391.437855538955
 21
42668.1654109112
 72
     1
 10
3391.437855538955
 20
42668.1654109112
 11
3391.531100722815
 21
42668.19890012348
 72
     1
 10
3391.531100722815
 20
42668.19890012348
 11
3391.625047560399
 21
42668.23152198166
 72
     1
 10
3391.625047560399
 20
42668.23152198166
 11
3391.71967757378
 21
42668.26327006921
 72
     1
 10
3391.71967757378
 20
42668.26327006921
 11
3391.81497214782
 21
42668.29413814099
 72
     1
 10
3391.81497214782
 20
42668.29413814099
 11
3391.910912540453
 21
42668.32412012656
 72
     1
 10
3391.910912540453
 20
42668.32412012656
 11
3392.007479879325
 21
42668.35321012722
 72
     1
 10
3392.007479879325
 20
42668.35321012722
 11
3392.104655169595
 21
42668.38140242145
 72
     1
 10
3392.104655169595
 20
42668.38140242145
 11
3392.202419297074
 21
42668.40869146402
 72
     1
 10
3392.202419297074
 20
42668.40869146402
 11
3392.300753034366
 21
42668.43507188802
 72
     1
 10
3392.300753034366
 20
42668.43507188802
 11
3392.399637037949
 21
42668.46053850317
 72
     1
 10
3392.399637037949
 20
42668.46053850317
 11
3392.499051856682
 21
42668.4850863013
 72
     1
 10
3392.499051856682
 20
42668.4850863013
 11
3392.598977936437
 21
42668.50871045316
 72
     1
 10
3392.598977936437
 20
42668.50871045316
 11
3392.699395623451
 21
42668.53140631275
 72
     1
 10
3392.699395623451
 20
42668.53140631275
 11
3392.800285163816
 21
42668.55316941517
 72
     1
 10
3392.800285163816
 20
42668.55316941517
 11
3392.901626716873
 21
42668.57399548056
 72
     1
 10
3392.901626716873
 20
42668.57399548056
 11
3393.003400344257
 21
42668.59388041143
 72
     1
 10
3393.003400344257
 20
42668.59388041143
 11
3393.10558602868
 21
42668.61282029685
 72
     1
 10
3393.10558602868
 20
42668.61282029685
 11
3393.208163673941
 21
42668.63081141225
 72
     1
 10
3393.208163673941
 20
42668.63081141225
 11
3393.311113098976
 21
42668.64785021779
 72
     1
 10
3393.311113098976
 20
42668.64785021779
 11
3393.414414057931
 21
42668.6639333627
 72
     1
 10
3393.414414057931
 20
42668.6639333627
 11
3393.51804622901
 21
42668.67905768276
 72
     1
 10
3393.51804622901
 20
42668.67905768276
 11
3393.621989228074
 21
42668.69322020372
 72
     1
 10
3393.621989228074
 20
42668.69322020372
 11
3393.726222612758
 21
42668.70641813951
 72
     1
 10
3393.726222612758
 20
42668.70641813951
 11
3393.830725876719
 21
42668.71864889427
 72
     1
 10
3393.830725876719
 20
42668.71864889427
 11
3393.935478468117
 21
42668.72991006226
 72
     1
 10
3393.935478468117
 20
42668.72991006226
 11
3394.040459780042
 21
42668.74019942831
 72
     1
 10
3394.040459780042
 20
42668.74019942831
 11
3394.14564916441
 21
42668.74951496887
 72
     1
 10
3394.14564916441
 20
42668.74951496887
 11
3394.25102592864
 21
42668.75785485104
 72
     1
 10
3394.25102592864
 20
42668.75785485104
 11
3394.356569350091
 21
42668.76521743506
 72
     1
 10
3394.356569350091
 20
42668.76521743506
 11
3394.462258665639
 21
42668.77160127228
 72
     1
 10
3394.462258665639
 20
42668.77160127228
 11
3394.568073086156
 21
42668.77700510722
 72
     1
 10
3394.568073086156
 20
42668.77700510722
 11
3394.673991798076
 21
42668.78142787681
 72
     1
 10
3394.673991798076
 20
42668.78142787681
 11
3394.779993967659
 21
42668.78486871118
 72
     1
 10
3394.779993967659
 20
42668.78486871118
 11
3394.8860587476
 21
42668.7873269336
 72
     1
 10
3394.8860587476
 20
42668.7873269336
 11
3394.992165272558
 21
42668.78880206048
 72
     1
 10
3394.992165272558
 20
42668.78880206048
 11
3395.098292673016
 21
42668.78929380169
 72
     1
 10
3395.098292673016
 20
42668.78929380169
 11
3377.531010867442
 21
42668.78929380172
 72
     2
 10
3366.696648295334
 20
42663.78929380172
 40
11.93245206753231
 50
335.2269304468231
 51
384.7730695531741
 73
     0
 72
     1
 10
3377.531010867438
 20
42658.7892938017
 11
3395.098292671504
 21
42658.78929380169
 97
        0
 92
        1
 93
        3
 72
     1
 10
3395.204420074254
 20
42658.7897855429
 11
3395.098292671504
 21
42658.78929380169
 72
     1
 10
3395.098292671504
 20
42658.78929380169
 11
3395.169048913434
 21
42658.7892938017
 72
     1
 10
3395.169048913434
 20
42658.7892938017
 11
3395.204420074254
 21
42658.7897855429
 97
        0
 75
     0
 76
     1
 98
        1
 10
3388.21954988315
 20
42662.20061264294
450
        0
451
        0
460
0.0
461
0.0
452
        1
462
1.0
453
        2
463
0.0
 63
     5
421
      255
463
1.0
 63
     7
421
 16777215
470
LINEAR
1001
ACAD
1010
3527.53101086747
1020
42562.87262244843
1030
0.0
  0
ELLIPSE
  5
724A
102
{ACAD_REACTORS
330
7249
102
}
330
2
100
AcDbEntity
  8
Fastenings and sealants
100
AcDbEllipse
 10
3395.098292672723
 20
42663.78929380169
 30
0.0
 11
7.567281805293022
 21
-0.0000000000000019
 31
0.0
210
0.0
220
0.0
230
1.0
 40
0.6607392361815695
 41
0.0
 42
6.283185307179586
  0
ARC
  5
724B
330
2
100
AcDbEntity
  8
Fastenings and sealants
100
AcDbCircle
 10
3366.696648295394
 20
42663.78929380167
 30
0.0
 40
11.93245206750236
100
AcDbArc
 50
335.2269304471229
 51
24.77306955343034
  0
LINE
  5
7439
330
2
100
AcDbEntity
  8
Fastenings and sealants
  6
HIDDEN
 48
10.0
370
    35
100
AcDbLine
 10
3457.531010867475
 20
42565.10386850207
 30
0.0
 11
3447.531010867475
 21
42550.10386850207
 31
0.0
  0
LINE
  5
743A
330
2
100
AcDbEntity
  8
Fastenings and sealants
  6
HIDDEN
 48
10.0
370
    35
100
AcDbLine
 10
3457.531010867475
 20
42765.10386850207
 30
0.0
 11
3447.531010867475
 21
42750.10386850206
 31
0.0
  0
LINE
  5
743B
330
2
100
AcDbEntity
  8
Fastenings and sealants
  6
HIDDEN
 48
10.0
370
    35
100
AcDbLine
 10
3447.531010867475
 20
42550.10386850207
 30
0.0
 11
3447.531010867475
 21
42750.10386850206
 31
0.0
  0
LINE
  5
743C
330
2
100
AcDbEntity
  8
Fastenings and sealants
  6
HIDDEN
 48
10.0
370
    35
100
AcDbLine
 10
3457.531010867475
 20
42565.10386850207
 30
0.0
 11
3457.531010867475
 21
42765.10386850207
 31
0.0
  0
LINE
  5
743E
330
2
100
AcDbEntity
  8
Text
370
     9
100
AcDbLine
 10
3507.214626632631
 20
42355.25549822739
 30
0.0
 11
3500.303538134867
 21
42360.80080940239
 31
0.0
  0
LINE
  5
743F
330
2
100
AcDbEntity
  8
Text
370
     9
100
AcDbLine
 10
3510.268362158029
 20
42366.3461205774
 30
0.0
 11
3507.214626632631
 21
42355.25549822739
 31
0.0
  0
LINE
  5
7440
330
2
100
AcDbEntity
  8
Text
370
     9
100
AcDbLine
 10
3517.179450655793
 20
42360.80080940239
 30
0.0
 11
3510.268362158029
 21
42366.3461205774
 31
0.0
  0
LINE
  5
7441
330
2
100
AcDbEntity
  8
Text
370
     9
100
AcDbLine
 10
3568.820409880085
 20
42360.80080940239
 30
0.0
 11
3517.179450655793
 21
42360.80080940239
 31
0.0
  0
LINE
  5
7442
330
2
100
AcDbEntity
  8
Text
370
     9
100
AcDbLine
 10
3480.100731051884
 20
42360.80080940239
 30
0.0
 11
3500.30353813486
 21
42360.80080940239
 31
0.0
  0
LINE
  5
7443
330
2
100
AcDbEntity
  8
Text
370
     9
100
AcDbLine
 10
3449.933099945738
 20
42355.25549822739
 30
0.0
 11
3443.022011447975
 21
42360.80080940239
 31
0.0
  0
LINE
  5
7444
330
2
100
AcDbEntity
  8
Text
370
     9
100
AcDbLine
 10
3452.986835471136
 20
42366.3461205774
 30
0.0
 11
3449.933099945738
 21
42355.25549822739
 31
0.0
  0
LINE
  5
7445
330
2
100
AcDbEntity
  8
Text
370
     9
100
AcDbLine
 10
3459.8979239689
 20
42360.80080940239
 30
0.0
 11
3452.986835471136
 21
42366.3461205774
 31
0.0
  0
LINE
  5
7446
330
2
100
AcDbEntity
  8
Text
370
     9
100
AcDbLine
 10
3480.100731051884
 20
42360.80080940239
 30
0.0
 11
3459.8979239689
 21
42360.80080940239
 31
0.0
  0
LINE
  5
7447
330
2
100
AcDbEntity
  8
Text
370
     9
100
AcDbLine
 10
3402.616397282014
 20
42360.80080940239
 30
0.0
 11
3443.022011447967
 21
42360.80080940239
 31
0.0
  0
LINE
  5
7448
330
2
100
AcDbEntity
  8
Text
370
     9
100
AcDbLine
 10
3392.651573258845
 20
42355.25549822739
 30
0.0
 11
3385.740484761082
 21
42360.80080940239
 31
0.0
  0
LINE
  5
7449
330
2
100
AcDbEntity
  8
Text
370
     9
100
AcDbLine
 10
3395.705308784243
 20
42366.3461205774
 30
0.0
 11
3392.651573258845
 21
42355.25549822739
 31
0.0
  0
LINE
  5
744A
330
2
100
AcDbEntity
  8
Text
370
     9
100
AcDbLine
 10
3402.616397282007
 20
42360.80080940239
 30
0.0
 11
3395.705308784243
 21
42366.3461205774
 31
0.0
  0
LINE
  5
744B
330
2
100
AcDbEntity
  8
Text
370
     9
100
AcDbLine
 10
3345.334870595122
 20
42360.80080940239
 30
0.0
 11
3385.740484761075
 21
42360.80080940239
 31
0.0
  0
HATCH
  5
746F
330
2
100
AcDbEntity
  8
Hatch
100
AcDbHatch
 10
0.0
 20
0.0
 30
0.0
210
0.0
220
0.0
230
1.0
  2
AR-SAND
 70
     0
 71
     0
 91
        2
 92
        7
 72
     0
 73
     1
 93
       25
 10
3527.531010867479
 20
42971.94032469773
 10
3517.17945065579
 20
42971.94032469773
 10
3510.268362158031
 20
42966.39501352273
 10
3507.21462663263
 20
42977.48563587275
 10
3500.303538134867
 20
42971.94032469773
 10
3480.100731051884
 20
42971.94032469773
 10
3459.897923968901
 20
42971.94032469773
 10
3452.986835471136
 20
42966.39501352273
 10
3449.933099945737
 20
42977.48563587275
 10
3443.022011447972
 20
42971.94032469773
 10
3402.616397282005
 20
42971.94032469773
 10
3395.705308784243
 20
42966.39501352273
 10
3392.651573258845
 20
42977.48563587274
 10
3385.740484761072
 20
42971.94032469773
 10
3377.531010867479
 20
42971.94032469773
 10
3377.531010867472
 20
42668.7892938017
 10
3422.531010867459
 20
42668.7892938017
 10
3432.531010867466
 20
42678.7892938017
 10
3447.531010867475
 20
42678.7892938017
 10
3447.531010867475
 20
42750.10386850207
 10
3457.531010867474
 20
42765.10386850207
 10
3457.531010867474
 20
42678.78929380169
 10
3472.531010867476
 20
42678.78929380171
 10
3482.531010867489
 20
42668.78929380169
 10
3527.531010867473
 20
42668.7892938017
 97
        0
 92
       23
 72
     0
 73
     1
 93
        4
 10
3457.531010867475
 20
42765.10386850207
 10
3447.531010867475
 20
42750.10386850207
 10
3447.531010867475
 20
42678.78929380169
 10
3457.531010867476
 20
42678.7892938017
 97
        0
 75
     0
 76
     1
 52
0.0
 41
5.0
 77
     0
 78
     4
 53
37.5
 43
3377.531010867472
 44
42668.78929380169
 45
-0.3149667905480408
 46
9.634118845065792
 79
     6
 49
0.0
 49
-7.599999999999999
 49
0.0
 49
-8.5
 49
0.0
 49
-8.125
 53
7.499999999999999
 43
3377.531010867472
 44
42668.78929380169
 45
8.848883526338635
 46
14.1107303261487
 79
     6
 49
0.0
 49
-4.099999999999999
 49
0.0
 49
-6.85
 49
0.0
 49
-2.625
 53
327.5
 43
3371.381010867473
 44
42668.78929380169
 45
15.57070930875747
 46
0.0282952676848225
 79
     6
 49
0.0
 49
-2.5
 49
0.0
 49
-9.0
 49
0.0
 49
-11.75
 53
317.5
 43
3371.381010867473
 44
42668.78929380169
 45
15.03063302286146
 46
4.388377824671245
 79
     6
 49
0.0
 49
-1.25
 49
0.0
 49
-5.899999999999999
 49
0.0
 49
-6.75
 47
1.173147706973648
 98
        2
 10
3487.486501762171
 20
42868.7170780163
 10
3454.622621400791
 20
42739.67082598552
1001
ACAD
1010
3377.531010867472
1020
42668.78929380169
1030
0.0
  0
HATCH
  5
7493
330
2
100
AcDbEntity
  8
Hatch
100
AcDbHatch
 10
0.0
 20
0.0
 30
0.0
210
0.0
220
0.0
230
1.0
  2
AR-SAND
 70
     0
 71
     0
 91
        2
 92
        7
 72
     0
 73
     1
 93
       25
 10
3527.531010867472
 20
42658.7892938017
 10
3482.531010867482
 20
42658.7892938017
 10
3472.531010867476
 20
42668.7892938017
 10
3457.531010867475
 20
42668.7892938017
 10
3457.531010867475
 20
42565.10386850207
 10
3447.531010867475
 20
42550.10386850207
 10
3447.531010867475
 20
42668.7892938017
 10
3432.531010867469
 20
42668.7892938017
 10
3422.531010867464
 20
42658.7892938017
 10
3377.531010867471
 20
42658.7892938017
 10
3377.531010867464
 20
42360.80080940239
 10
3385.740484761071
 20
42360.80080940239
 10
3392.651573258846
 20
42355.25549822739
 10
3395.705308784243
 20
42366.3461205774
 10
3402.616397282013
 20
42360.80080940239
 10
3443.022011447972
 20
42360.80080940239
 10
3449.933099945739
 20
42355.25549822739
 10
3452.986835471137
 20
42366.34612057741
 10
3459.897923968901
 20
42360.80080940239
 10
3480.100731051884
 20
42360.80080940239
 10
3500.303538134871
 20
42360.80080940239
 10
3507.214626632634
 20
42355.25549822739
 10
3510.26836215803
 20
42366.3461205774
 10
3517.179450655789
 20
42360.8008094024
 10
3527.531010867466
 20
42360.80080940241
 97
        0
 92
       23
 72
     0
 73
     1
 93
        4
 10
3457.531010867475
 20
42668.7892938017
 10
3447.531010867475
 20
42668.7892938017
 10
3447.531010867475
 20
42550.10386850207
 10
3457.531010867474
 20
42565.10386850207
 97
        0
 75
     0
 76
     1
 52
0.0
 41
5.0
 77
     0
 78
     4
 53
37.5
 43
3377.531010867464
 44
42355.25549822739
 45
-0.3149667905480408
 46
9.634118845065792
 79
     6
 49
0.0
 49
-7.599999999999999
 49
0.0
 49
-8.5
 49
0.0
 49
-8.125
 53
7.499999999999999
 43
3377.531010867464
 44
42355.25549822739
 45
8.848883526338635
 46
14.1107303261487
 79
     6
 49
0.0
 49
-4.099999999999999
 49
0.0
 49
-6.85
 49
0.0
 49
-2.625
 53
327.5
 43
3371.381010867464
 44
42355.25549822739
 45
15.57070930875747
 46
0.0282952676848225
 79
     6
 49
0.0
 49
-2.5
 49
0.0
 49
-9.0
 49
0.0
 49
-11.75
 53
317.5
 43
3371.381010867464
 44
42355.25549822739
 45
15.03063302286146
 46
4.388377824671245
 79
     6
 49
0.0
 49
-1.25
 49
0.0
 49
-5.899999999999999
 49
0.0
 49
-6.75
 47
1.173147706973648
 98
        2
 10
3482.791661710544
 20
42459.28851921174
 10
3453.448887759151
 20
42583.64217635995
1001
ACAD
1010
3377.531010867464
1020
42355.25549822739
1030
0.0
  0
LINE
  5
7494
330
2
100
AcDbEntity
  8
Lining
370
    50
100
AcDbLine
 10
3552.531010867475
 20
42762.87262244838
 30
0.0
 11
3552.531010867479
 21
42971.94032469773
 31
0.0
  0
LINE
  5
7495
330
2
100
AcDbEntity
  8
Lining
370
    50
100
AcDbLine
 10
3562.531010867475
 20
42762.87262244838
 30
0.0
 11
3562.531010867479
 21
42971.94032469773
 31
0.0
  0
LINE
  5
7496
330
2
100
AcDbEntity
  8
Lining
370
    50
100
AcDbLine
 10
3552.531010867466
 20
42360.8008094024
 30
0.0
 11
3552.531010867471
 21
42562.87262244843
 31
0.0
  0
LINE
  5
7497
330
2
100
AcDbEntity
  8
Lining
370
    50
100
AcDbLine
 10
3562.531010867466
 20
42360.8008094024
 30
0.0
 11
3562.53101086747
 21
42562.87262244843
 31
0.0
  0
HATCH
  5
74A2
330
2
100
AcDbEntity
  8
Hatch
100
AcDbHatch
 10
0.0
 20
0.0
 30
0.0
210
0.0
220
0.0
230
1.0
  2
AR-CONC
 70
     0
 71
     0
 91
        1
 92
        7
 72
     0
 73
     1
 93
        4
 10
3562.531010867479
 20
42971.94032469773
 10
3552.531010867479
 20
42971.94032469774
 10
3552.531010867475
 20
42762.87262244839
 10
3562.531010867475
 20
42762.87262244839
 97
        0
 75
     0
 76
     1
 52
0.0
 41
1.0
 77
     0
 78
    13
 53
50.0
 43
3552.531010867475
 44
42762.87262244839
 45
7.172601826007534
 46
-0.6275213498259511
 79
     2
 49
0.75
 49
-8.25
 53
355.0
 43
3552.531010867475
 44
42762.87262244839
 45
-1.38751333613
 46
7.521921337000118
 79
     2
 49
0.6
 49
-6.599999999999999
 53
100.4514
 43
3553.128727667475
 44
42762.82032904839
 45
5.785093817140215
 46
6.894395420609535
 79
     2
 49
0.6374019000000001
 49
-7.011421119999999
 53
46.1842
 43
3552.531010867475
 44
42764.87262244839
 45
10.67241048625644
 46
-1.65519014329018
 79
     2
 49
1.125
 49
-12.375
 53
96.6356
 43
3553.420378317475
 44
42764.73468937838
 45
9.346627055487033
 46
9.741178709004417
 79
     2
 49
0.9561028799999998
 49
-10.51713
 53
351.1842000000001
 43
3552.531010867475
 44
42764.87262244839
 45
9.346619451336271
 46
9.741186009253246
 79
     2
 49
0.9
 49
-9.9
 53
21.0
 43
3553.531010867475
 44
42764.37262244839
 45
5.969070521184616
 46
-4.026188906653388
 79
     2
 49
0.75
 49
-8.25
 53
326.0
 43
3553.531010867475
 44
42764.37262244839
 45
2.433153319215817
 46
7.25150045046853
 79
     2
 49
0.6
 49
-6.599999999999999
 53
71.45140000000001
 43
3554.028433197475
 44
42764.03710638839
 45
8.402226285814899
 46
3.225304967099523
 79
     2
 49
0.6374019000000001
 49
-7.011421119999999
 53
37.5
 43
3552.531010867475
 44
42762.87262244839
 45
0.1215985531729067
 46
3.328938538313114
 79
     6
 49
0.0
 49
-6.519999999999999
 49
0.0
 49
-6.7
 49
0.0
 49
-6.625
 53
7.499999999999999
 43
3552.531010867475
 44
42762.87262244839
 45
2.630695374421486
 46
3.944117118823602
 79
     6
 49
0.0
 49
-3.819999999999999
 49
0.0
 49
-6.37
 49
0.0
 49
-2.524999999999999
 53
327.5
 43
3550.301010867475
 44
42762.87262244839
 45
5.33822436172409
 46
-0.225548717343798
 79
     6
 49
0.0
 49
-2.5
 49
0.0
 49
-7.799999999999999
 49
0.0
 49
-10.35
 53
317.5
 43
3549.301010867475
 44
42762.87262244839
 45
5.831861693423862
 46
1.001049823323176
 79
     6
 49
0.0
 49
-3.25
 49
0.0
 49
-5.179999999999999
 49
0.0
 49
-7.349999999999999
 47
1.157974804408195
 98
        1
 10
3560.091688526773
 20
42833.78524642741
1001
ACAD
1010
3532.531010867469
1020
42562.87262244838
1030
0.0
  0
HATCH
  5
74AD
330
2
100
AcDbEntity
  8
Hatch
100
AcDbHatch
 10
0.0
 20
0.0
 30
0.0
210
0.0
220
0.0
230
1.0
  2
AR-CONC
 70
     0
 71
     0
 91
        1
 92
        7
 72
     0
 73
     1
 93
        4
 10
3562.53101086747
 20
42562.87262244843
 10
3552.531010867471
 20
42562.87262244843
 10
3552.531010867466
 20
42360.80080940239
 10
3562.531010867466
 20
42360.80080940239
 97
        0
 75
     0
 76
     1
 52
0.0
 41
1.0
 77
     0
 78
    13
 53
50.0
 43
3552.531010867466
 44
42360.80080940239
 45
7.172601826007534
 46
-0.6275213498259511
 79
     2
 49
0.75
 49
-8.25
 53
355.0
 43
3552.531010867466
 44
42360.80080940239
 45
-1.38751333613
 46
7.521921337000118
 79
     2
 49
0.6
 49
-6.599999999999999
 53
100.4514
 43
3553.128727667466
 44
42360.7485160024
 45
5.785093817140215
 46
6.894395420609535
 79
     2
 49
0.6374019000000001
 49
-7.011421119999999
 53
46.1842
 43
3552.531010867466
 44
42362.8008094024
 45
10.67241048625644
 46
-1.65519014329018
 79
     2
 49
1.125
 49
-12.375
 53
96.6356
 43
3553.420378317466
 44
42362.66287633239
 45
9.346627055487033
 46
9.741178709004417
 79
     2
 49
0.9561028799999998
 49
-10.51713
 53
351.1842000000001
 43
3552.531010867466
 44
42362.8008094024
 45
9.346619451336271
 46
9.741186009253246
 79
     2
 49
0.9
 49
-9.9
 53
21.0
 43
3553.531010867466
 44
42362.3008094024
 45
5.969070521184616
 46
-4.026188906653388
 79
     2
 49
0.75
 49
-8.25
 53
326.0
 43
3553.531010867466
 44
42362.3008094024
 45
2.433153319215817
 46
7.25150045046853
 79
     2
 49
0.6
 49
-6.599999999999999
 53
71.45140000000001
 43
3554.028433197466
 44
42361.9652933424
 45
8.402226285814899
 46
3.225304967099523
 79
     2
 49
0.6374019000000001
 49
-7.011421119999999
 53
37.5
 43
3552.531010867466
 44
42360.80080940239
 45
0.1215985531729067
 46
3.328938538313114
 79
     6
 49
0.0
 49
-6.519999999999999
 49
0.0
 49
-6.7
 49
0.0
 49
-6.625
 53
7.499999999999999
 43
3552.531010867466
 44
42360.80080940239
 45
2.630695374421486
 46
3.944117118823602
 79
     6
 49
0.0
 49
-3.819999999999999
 49
0.0
 49
-6.37
 49
0.0
 49
-2.524999999999999
 53
327.5
 43
3550.301010867466
 44
42360.80080940239
 45
5.33822436172409
 46
-0.225548717343798
 79
     6
 49
0.0
 49
-2.5
 49
0.0
 49
-7.799999999999999
 49
0.0
 49
-10.35
 53
317.5
 43
3549.301010867466
 44
42360.80080940239
 45
5.831861693423862
 46
1.001049823323176
 79
     6
 49
0.0
 49
-3.25
 49
0.0
 49
-5.179999999999999
 49
0.0
 49
-7.349999999999999
 47
1.157974804408195
 98
        1
 10
3555.457574316817
 20
42470.1811315088
1001
ACAD
1010
3532.531010867469
1020
42562.87262244838
1030
0.0
  0
HATCH
  5
74C7
330
2
100
AcDbEntity
  8
Hatch
100
AcDbHatch
 10
0.0
 20
0.0
 30
0.0
210
0.0
220
0.0
230
1.0
  2
AR-CONC
 70
     0
 71
     0
 91
        1
 92
        7
 72
     1
 73
     1
 93
        6
 10
3377.531010867479
 20
42971.94032469773
 42
0.0
 10
3372.531010867478
 20
42971.94032469773
 42
0.0
 10
3372.531010867464
 20
42360.80080940239
 42
0.0
 10
3377.531010867464
 20
42360.80080940239
 42
0.0
 10
3377.531010867471
 20
42658.7892938017
 42
0.2196178990849748
 10
3377.531010867472
 20
42668.7892938017
 42
0.0
 97
        0
 75
     0
 76
     1
 52
0.0
 41
2.0
 77
     0
 78
    13
 53
50.0
 43
3372.531010867464
 44
42360.80080940239
 45
14.34520365201507
 46
-1.255042699651902
 79
     2
 49
1.5
 49
-16.5
 53
355.0
 43
3372.531010867464
 44
42360.80080940239
 45
-2.77502667226
 46
15.04384267400024
 79
     2
 49
1.199999999999999
 49
-13.2
 53
100.4514
 43
3373.726444467465
 44
42360.6962226024
 45
11.57018763428043
 46
13.78879084121907
 79
     2
 49
1.2748038
 49
-14.02284224
 53
46.1842
 43
3372.531010867464
 44
42364.80080940239
 45
21.34482097251289
 46
-3.310380286580361
 79
     2
 49
2.25
 49
-24.75
 53
96.6356
 43
3374.309745767464
 44
42364.5249432624
 45
18.69325411097406
 46
19.48235741800883
 79
     2
 49
1.912205759999999
 49
-21.03426
 53
351.1842000000001
 43
3372.531010867464
 44
42364.80080940239
 45
18.69323890267254
 46
19.48237201850649
 79
     2
 49
1.8
 49
-19.8
 53
21.0
 43
3374.531010867464
 44
42363.80080940239
 45
11.93814104236923
 46
-8.052377813306776
 79
     2
 49
1.5
 49
-16.5
 53
326.0
 43
3374.531010867464
 44
42363.80080940239
 45
4.866306638431634
 46
14.50300090093706
 79
     2
 49
1.199999999999999
 49
-13.2
 53
71.45140000000001
 43
3375.525855527464
 44
42363.12977728239
 45
16.8044525716298
 46
6.450609934199047
 79
     2
 49
1.2748038
 49
-14.02284224
 53
37.5
 43
3372.531010867464
 44
42360.80080940239
 45
0.2431971063458134
 46
6.657877076626229
 79
     6
 49
0.0
 49
-13.04
 49
0.0
 49
-13.4
 49
0.0
 49
-13.25
 53
7.499999999999999
 43
3372.531010867464
 44
42360.80080940239
 45
5.261390748842972
 46
7.888234237647204
 79
     6
 49
0.0
 49
-7.639999999999999
 49
0.0
 49
-12.74
 49
0.0
 49
-5.049999999999999
 53
327.5
 43
3368.071010867465
 44
42360.80080940239
 45
10.67644872344818
 46
-0.451097434687596
 79
     6
 49
0.0
 49
-5.0
 49
0.0
 49
-15.6
 49
0.0
 49
-20.7
 53
317.5
 43
3366.071010867464
 44
42360.80080940239
 45
11.66372338684772
 46
2.002099646646352
 79
     6
 49
0.0
 49
-6.5
 49
0.0
 49
-10.36
 49
0.0
 49
-14.7
 47
1.018074750527735
 98
        1
 10
3374.621357923294
 20
42838.19831336659
1001
ACAD
1010
3372.531010867464
1020
42360.80080940239
1030
0.0
  0
LWPOLYLINE
  5
75DB
330
2
100
AcDbEntity
  8
Timber
100
AcDbPolyline
 90
        4
 70
     1
 43
0.0
 10
3527.53101086747
 20
42512.87262244843
 10
3552.531010867471
 20
42512.87262244843
 10
3552.531010867471
 20
42562.87262244843
 10
3527.53101086747
 20
42562.87262244843
  0
LINE
  5
75E4
330
2
100
AcDbEntity
  8
Hatch
100
AcDbLine
 10
3527.53101086747
 20
42562.87262244835
 30
0.0
 11
3552.531010867469
 21
42512.87262244843
 31
0.0
  0
LINE
  5
75E5
330
2
100
AcDbEntity
  8
Hatch
100
AcDbLine
 10
3552.531010867471
 20
42562.87262244843
 30
0.0
 11
3527.53101086747
 21
42512.87262244843
 31
0.0
  0
LWPOLYLINE
  5
75E6
330
2
100
AcDbEntity
  8
Timber
100
AcDbPolyline
 90
        4
 70
     1
 43
0.0
 10
3527.531010867475
 20
42762.87262244838
 10
3552.531010867475
 20
42762.87262244838
 10
3552.531010867475
 20
42812.87262244838
 10
3527.531010867475
 20
42812.87262244838
  0
LINE
  5
75E7
330
2
100
AcDbEntity
  8
Hatch
100
AcDbLine
 10
3527.531010867476
 20
42812.8726224483
 30
0.0
 11
3552.531010867474
 21
42762.87262244838
 31
0.0
  0
LINE
  5
75E8
330
2
100
AcDbEntity
  8
Hatch
100
AcDbLine
 10
3552.531010867475
 20
42812.87262244838
 30
0.0
 11
3527.531010867475
 21
42762.87262244838
 31
0.0
  0
MTEXT
  5
79C0
330
2
100
AcDbEntity
  8
Text
100
AcDbMText
 10
3648.817081904858
 20
42956.72133711952
 30
0.0
 40
12.5
 41
198.5965745655824
 71
     1
 72
     5
  3
{\fSwis721 BT|b0|i1|c0|p34;Internal wall to project specification\P\PNon-fire rated backing rod and appropriate Holdfast & acoustic rated sealant to project specification\P\P\P\P\P\P\P\P\P\P\P\P\PType 4 wall\P\P\PAppropriate 10mm Holdfast fire & acou
  1
stic rated sealant between DPC and external panels}
  7
1
 73
     1
 44
1.0
1001
ACAD
1000
ACAD_MTEXT_DEFINED_HEIGHT_BEGIN
1070
    46
1040
10.4113121493026
1000
ACAD_MTEXT_DEFINED_HEIGHT_END
  0
LEADER
  5
79C8
330
2
100
AcDbEntity
  8
Text
100
AcDbLeader
  3
STANDARD
 72
     1
 76
     4
 10
3530.138141218693
 20
42630.14201526719
 30
0.0
 10
3435.506719435988
 20
42561.63989080017
 30
0.0
 10
3341.989399874299
 20
42524.79099132755
 30
0.0
 10
3314.548502032452
 20
42523.22360017656
 30
0.0
211
0.0000000000000003
221
1.0
231
0.0
213
-23.77277564990604
223
77.99010589819774
233
0.0
1001
ACAD
1000
DSTYLE
1002
{
1070
    41
1040
15.0
1070
    77
1070
     0
1002
}
  0
LEADER
  5
79C9
330
2
100
AcDbEntity
  8
Text
100
AcDbLeader
  3
STANDARD
 72
     1
 76
     4
 10
3536.520734513426
 20
42758.21380203656
 30
0.0
 10
3574.437398158723
 20
42834.01074475183
 30
0.0
 10
3623.625656929486
 20
42886.61206307221
 30
0.0
 10
3642.11582287198
 20
42887.27892373216
 30
0.0
1001
ACAD
1000
DSTYLE
1002
{
1070
    41
1040
15.0
1070
    77
1070
     0
1002
}
  0
MTEXT
  5
79CA
102
{ACAD_XDICTIONARY
360
79CB
102
}
330
2
100
AcDbEntity
  8
Text
100
AcDbMText
 10
3305.521885786337
 20
42928.02559437958
 30
0.0
 40
12.5
 41
166.8353295123518
 71
     3
 72
     5
  3
{\fSwis721 BT|b0|i1|c0|p34;Coating system to project specifications\P\P\PCIWS Supercrete\fSwis721 Blk BT|b0|i0|c0|p34;\U+2122\fSwis721 BT|b0|i1|c0|p34; Panel\P\P%%C6mm x 300mm long stainless steel dowels (3 per panel min.)\P\P\P\P\PBacking rod and ap
  1
propriate Holdfast fire & acoustic rated sealant\P\PVertical DPC full height of wall}
  7
1
 73
     1
 44
1.0
  0
LEADER
  5
79CC
330
2
100
AcDbEntity
  8
Text
100
AcDbLeader
  3
STANDARD
 72
     1
 76
     4
 10
3558.789252281666
 20
42876.72171830607
 30
0.0
 10
3579.252207725029
 20
42911.61237143309
 30
0.0
 10
3625.165518254387
 20
42949.60733883766
 30
0.0
 10
3644.307166872266
 20
42949.74046599498
 30
0.0
1001
ACAD
1000
DSTYLE
1002
{
1070
    41
1040
15.0
1070
   147
1040
1.0
1070
    77
1070
     0
1002
}
  0
LEADER
  5
79CD
330
2
100
AcDbEntity
  8
Text
100
AcDbLeader
  3
STANDARD
 72
     1
 76
     4
 10
3533.60420602806
 20
42563.313215294
 30
0.0
 10
3535.893687695989
 20
42528.44826238718
 30
0.0
 10
3608.173977311126
 20
42471.49820941817
 30
0.0
 10
3642.793857008743
 20
42471.49820941817
 30
0.0
1001
ACAD
1000
DSTYLE
1002
{
1070
    41
1040
15.0
1070
    77
1070
     0
1002
}
  0
LEADER
  5
79CE
330
2
100
AcDbEntity
  8
Text
100
AcDbLeader
  3
STANDARD
 72
     1
 76
     4
 10
3387.07903203971
 20
42663.84494310591
 30
0.0
 10
3362.806086192228
 20
42641.75032922102
 30
0.0
 10
3345.195238220025
 20
42628.46638886825
 30
0.0
 10
3316.336198877882
 20
42626.86379070129
 30
0.0
211
0.0000000000000003
221
1.0
231
0.0
213
-23.77277564990604
223
77.99010589819774
233
0.0
1001
ACAD
1000
DSTYLE
1002
{
1070
    41
1040
15.0
1070
    77
1070
     0
1002
}
  0
LEADER
  5
79CF
330
2
100
AcDbEntity
  8
Text
100
AcDbLeader
  3
STANDARD
 72
     1
 76
     4
 10
3447.269504352324
 20
42714.40466002488
 30
0.0
 10
3413.568810830435
 20
42748.87254941003
 30
0.0
 10
3359.490950782609
 20
42772.37338228945
 30
0.0
 10
3317.137836775663
 20
42772.70008639345
 30
0.0
213
27.34917188711506
223
22.61961683204447
233
0.0
1001
ACAD
1000
DSTYLE
1002
{
1070
    41
1040
15.0
1070
    77
1070
     0
1002
}
  0
MTEXT
  5
79D0
330
2
100
AcDbEntity
  8
Text
100
AcDbMText
 10
3516.802064370135
 20
42365.35064005106
 30
0.0
 40
2.5
 41
0.0
 71
     6
 72
     1
  1
\A1;
  7
1
 73
     1
 44
1.0
  0
LEADER
  5
79D1
330
2
100
AcDbEntity
  8
Text
100
AcDbLeader
  3
STANDARD
 72
     1
 76
     4
 10
3457.213560971748
 20
42886.27901733075
 30
0.0
 10
3426.160874885841
 20
42867.25329140122
 30
0.0
 10
3358.02147673682
 20
42838.4065497251
 30
0.0
 10
3313.931274467101
 20
42836.80395517658
 30
0.0
211
0.0000000000000003
221
1.0
231
0.0
213
-23.77277564990604
223
77.99010589819774
233
0.0
1001
ACAD
1000
DSTYLE
1002
{
1070
    41
1040
15.0
1070
    77
1070
     0
1002
}
  0
MTEXT
  5
79D2
330
2
100
AcDbEntity
  8
Text
100
AcDbMText
 10
3187.425184249787
 20
42687.72478989846
 30
0.0
 40
12.5
 41
147.1029801500742
 71
     1
 72
     5
  1
{\fSwis721 BT|b0|i1|c0|p34;EXTERNAL SIDE}
  7
1
 73
     1
 44
1.0
1001
ACAD
1000
ACAD_MTEXT_DEFINED_HEIGHT_BEGIN
1070
    46
1040
10.4113121493026
1000
ACAD_MTEXT_DEFINED_HEIGHT_END
  0
LEADER
  5
79D3
330
2
100
AcDbEntity
  8
Text
100
AcDbLeader
  3
STANDARD
 72
     1
 76
     4
 10
3374.413001415535
 20
42891.92977829708
 30
0.0
 10
3353.970537452227
 20
42914.78665192832
 30
0.0
 10
3329.716765736961
 20
42920.67402783589
 30
0.0
 10
3313.129636569323
 20
42920.13898025252
 30
0.0
211
0.0000000000000003
221
1.0
231
0.0
213
-23.77277564990604
223
77.99010589819774
233
0.0
1001
ACAD
1000
DSTYLE
1002
{
1070
    41
1040
15.0
1070
    77
1070
     0
1002
}
  0
LEADER
  5
79D4
330
2
100
AcDbEntity
  8
Text
100
AcDbLeader
  3
STANDARD
 72
     1
 76
     4
 10
3620.307428400237
 20
42618.71720060688
 30
0.0
 10
3616.483667678501
 20
42588.14178946066
 30
0.0
 10
3624.13118912197
 20
42535.59029850277
 30
0.0
 10
3640.881976647877
 20
42535.51547781282
 30
0.0
1001
ACAD
1000
DSTYLE
1002
{
1070
    41
1040
15.0
1070
    77
1070
     0
1002
}
  0
HATCH
  5
79D5
330
2
100
AcDbEntity
  8
Text
100
AcDbHatch
 10
0.0
 20
0.0
 30
0.0
210
0.0
220
0.0
230
1.0
  2
SOLID
 70
     1
 71
     0
 91
        1
 92
        7
 72
     0
 73
     1
 93
        3
 10
3681.25687667527
 20
42605.58997465597
 10
3672.490288572772
 20
42572.87262244842
 10
3681.25687667527
 20
42572.87262244842
 97
        0
 75
     0
 76
     1
 47
0.0545996881292645
 98
        1
 10
3679.524856084318
 20
42583.03335028887
450
        0
451
        0
460
0.0
461
0.0
452
        1
462
1.0
453
        2
463
0.0
 63
     5
421
      255
463
1.0
 63
     7
421
 16777215
470
LINEAR
1001
ACAD
1010
98.93776900128385
1020
540.2078051727925
1030
0.0
  0
LINE
  5
79D6
330
2
100
AcDbEntity
  8
Text
100
AcDbLine
 10
3640.029079841868
 20
42572.87262244842
 30
0.0
 11
3681.25687667527
 21
42572.87262244842
 31
0.0
  0
LINE
  5
79D7
330
2
100
AcDbEntity
  8
Text
100
AcDbLine
 10
3681.25687667527
 20
42572.87262244842
 30
0.0
 11
3681.25687667527
 21
42605.58997465597
 31
0.0
  0
LINE
  5
79D8
330
2
100
AcDbEntity
  8
Text
100
AcDbLine
 10
3681.25687667527
 20
42605.58997465597
 30
0.0
 11
3672.490288572772
 21
42572.87262244842
 31
0.0
  0
HATCH
  5
79D9
330
2
100
AcDbEntity
  8
Text
100
AcDbHatch
 10
0.0
 20
0.0
 30
0.0
210
0.0
220
0.0
230
1.0
  2
SOLID
 70
     1
 71
     0
 91
        1
 92
        7
 72
     0
 73
     1
 93
        3
 10
3323.608813004558
 20
42605.58997465597
 10
3332.375401107053
 20
42572.87262244842
 10
3323.608813004558
 20
42572.87262244842
 97
        0
 75
     0
 76
     1
 47
0.0545996881292645
 98
        1
 10
3325.34083359551
 20
42583.03335028887
450
        0
451
        0
460
0.0
461
0.0
452
        1
462
1.0
453
        2
463
0.0
 63
     5
421
      255
463
1.0
 63
     7
421
 16777215
470
LINEAR
1001
ACAD
1010
98.93776900128385
1020
540.2078051727925
1030
0.0
  0
LINE
  5
79DA
330
2
100
AcDbEntity
  8
Text
100
AcDbLine
 10
3364.836609837956
 20
42572.87262244842
 30
0.0
 11
3323.608813004558
 21
42572.87262244842
 31
0.0
  0
LINE
  5
79DB
330
2
100
AcDbEntity
  8
Text
100
AcDbLine
 10
3323.608813004558
 20
42572.87262244842
 30
0.0
 11
3323.608813004558
 21
42605.58997465597
 31
0.0
  0
LINE
  5
79DC
330
2
100
AcDbEntity
  8
Text
100
AcDbLine
 10
3323.608813004558
 20
42605.58997465597
 30
0.0
 11
3332.375401107056
 21
42572.87262244842
 31
0.0
  0
MTEXT
  5
79DD
330
2
100
AcDbEntity
  8
Text
100
AcDbMText
 10
3335.871696435833
 20
42610.74813131487
 30
0.0
 40
12.5
 41
19.86311256203407
 71
     1
 72
     5
  1
{\fSwis721 BT|b0|i1|c0|p34;A}
  7
1
 73
     1
 44
1.0
1001
ACAD
1000
ACAD_MTEXT_DEFINED_HEIGHT_BEGIN
1070
    46
1040
10.4113121493026
1000
ACAD_MTEXT_DEFINED_HEIGHT_END
  0
MTEXT
  5
79DE
330
2
100
AcDbEntity
  8
Text
100
AcDbMText
 10
3659.690520681933
 20
42610.74813131487
 30
0.0
 40
12.5
 41
11.69413335992089
 71
     1
 72
     5
  1
{\fSwis721 BT|b0|i1|c0|p34;A}
  7
1
 73
     1
 44
1.0
 90
        3
 63
   256
 45
1.3
441
  7798856
1001
ACAD
1000
ACAD_MTEXT_DEFINED_HEIGHT_BEGIN
1070
    46
1040
13.85758332567889
1000
ACAD_MTEXT_DEFINED_HEIGHT_END
  0
TEXT
  5
79ED
330
2
100
AcDbEntity
  8
3
 62
     7
100
AcDbText
 10
-884.0710132842769
 20
42196.77567019643
 30
0.0
 40
40.0
  1

 41
0.85
  7
ROMANS
100
AcDbText
  0
LINE
  5
79EE
330
2
100
AcDbEntity
  8
Title block
100
AcDbLine
 10
3116.131773907799
 20
42072.00757402449
 30
0.0
 11
3116.131773907799
 21
41905.4906185524
 31
0.0
  0
LINE
  5
79EF
330
2
100
AcDbEntity
  8
Title block
100
AcDbLine
 10
3116.131773907799
 20
41905.4906185524
 30
0.0
 11
4066.131773907798
 21
41905.4906185524
 31
0.0
  0
LINE
  5
79F0
330
2
100
AcDbEntity
  8
Title block
100
AcDbLine
 10
4066.131773907798
 20
41905.4906185524
 30
0.0
 11
4066.131773907798
 21
42072.00757402449
 31
0.0
  0
LINE
  5
79F2
330
2
100
AcDbEntity
  8
Title block
100
AcDbLine
 10
3409.714453790832
 20
42002.23611895443
 30
0.0
 11
4067.024667000067
 21
42002.23611895443
 31
0.0
  0
LINE
  5
79F3
330
2
100
AcDbEntity
  8
Title block
100
AcDbLine
 10
3409.714453790832
 20
41957.06192100671
 30
0.0
 11
4067.024667000068
 21
41957.06192100671
 31
0.0
  0
TEXT
  5
79F4
330
2
100
AcDbEntity
  8
0
100
AcDbText
 10
3431.482443783837
 20
41974.12211193282
 30
0.0
 40
12.5
  1
Date:    March 2016
  7
Title block
100
AcDbText
  0
TEXT
  5
79F5
330
2
100
AcDbEntity
  8
0
100
AcDbText
 10
3840.052678476189
 20
41974.42627978137
 30
0.0
 40
12.5
  1
Detail No.
  7
Title block
100
AcDbText
  0
TEXT
  5
79F6
330
2
100
AcDbEntity
  8
0
100
AcDbText
 10
3430.614229247645
 20
42049.72638682224
 30
0.0
 40
12.5
  1
Title:
  7
Title block
100
AcDbText
  0
LWPOLYLINE
  5
79F7
330
2
100
AcDbEntity
  8
Title block
100
AcDbPolyline
 90
        2
 70
     0
 43
0.0
 10
3116.131773907799
 20
42072.00757402449
 10
4066.131773907798
 20
42072.00757402449
  0
MTEXT
  5
79F8
330
2
100
AcDbEntity
  8
Title block
100
AcDbMText
 10
3416.148685312395
 20
41946.71457877345
 30
0.0
 40
12.5
 41
649.2291057981083
 71
     1
 72
     1
  1
This drawing is to be read in conjunction with all the current, relevant Supercrete \PTechnical Literature, Project Specific Design Documentation and Specifications
  7
Title block
 73
     1
 44
1.0
  0
LWPOLYLINE
  5
79F9
330
2
100
AcDbEntity
  8
Title block
100
AcDbPolyline
 90
        2
 70
     0
 43
0.0
 10
3616.663467956988
 20
42002.23611895443
 10
3616.663467956988
 20
41957.06192100671
  0
LWPOLYLINE
  5
79FA
330
2
100
AcDbEntity
  8
Title block
100
AcDbPolyline
 90
        2
 70
     0
 43
0.0
 10
3831.849258806375
 20
42002.23611895443
 10
3831.849258806375
 20
41957.06192100671
  0
TEXT
  5
79FB
330
2
100
AcDbEntity
  8
0
100
AcDbText
 10
3638.431457949995
 20
41974.12211193282
 30
0.0
 40
12.5
  1
Scale:
  7
Title block
100
AcDbText
  0
LINE
  5
7A01
330
2
100
AcDbEntity
  8
Title block
100
AcDbLine
 10
3408.905974574466
 20
42072.0536585524
 30
0.0
 11
3408.905974574466
 21
41905.53670308031
 31
0.0
  0
IMAGE
  5
7A02
330
2
100
AcDbEntity
  8
Title block
 92
      140
310
8C00000001000000840000000600000005000000ECA0DE774358A84092CBF95AC182E4400000000000000000ECA0DE774358A84070E10B3E008BE4400000000000000000AC40E6DBCFA1AA4070E10B3E008BE4400000000000000000AC40E6DBCFA1AA4092CBF95AC182E4400000000000000000ECA0DE774358A84092CBF9
310
5AC182E4400000000000000000
100
AcDbRasterImage
 90
        0
 10
3116.131773907799
 20
42006.04235543975
 30
0.0
 11
0.2141727876127774
 21
0.0
 31
0.0
 12
0.0
 22
0.2141727876127774
 32
0.0
 13
1367.0
 23
308.0
340
7990
 70
     7
280
     0
281
    50
282
    50
283
     0
360
7A03
 71
     1
 91
        2
 14
-0.5
 24
-0.5
 14
1366.5
 24
307.5
  0
MTEXT
  5
7A1D
330
2
100
AcDbEntity
  8
Text
100
AcDbMText
 10
3476.32314557019
 20
42043.72592160721
 30
0.0
 40
20.0
 41
587.7818114118126
 71
     1
 72
     5
  1
A.W.S. - Type 4 Wall to External Wall Junction
  7
5
 73
     1
 44
1.0
1001
ACAD
1000
ACAD_MTEXT_COLUMN_INFO_BEGIN
1070
    75
1070
     2
1070
    79
1070
     0
1070
    76
1070
     1
1070
    78
1070
     0
1070
    48
1040
587.7818114118126
1070
    49
1040
62.5
1070
    50
1070
     1
1040
0.0
1000
ACAD_MTEXT_COLUMN_INFO_END
  0
MTEXT
  5
7A1E
330
2
100
AcDbEntity
  8
Text
100
AcDbMText
 10
3944.692487217097
 20
41990.16525648183
 30
0.0
 40
20.0
 41
132.3013367117273
 71
     1
 72
     5
  1
10.2.7
  7
5
 73
     1
 44
1.0
1001
ACAD
1000
ACAD_MTEXT_COLUMN_INFO_BEGIN
1070
    75
1070
     2
1070
    79
1070
     0
1070
    76
1070
     1
1070
    78
1070
     0
1070
    48
1040
132.3013367117273
1070
    49
1040
62.5
1070
    50
1070
     1
1040
0.0
1000
ACAD_MTEXT_COLUMN_INFO_END
  0
VIEWPORT
  5
5F
330
5E
100
AcDbEntity
 67
     1
  8
0
100
AcDbViewport
 10
87.70812920605621
 20
546.6625540199975
 30
0.0
 40
449.2527573529804
 41
299.3737365081025
 68
     1
 69
     1
 12
87.70812920605621
 22
546.6625540199975
 13
0.0
 23
0.0
 14
1.0
 24
1.0
 15
1900.0
 25
1900.0
 16
0.0
 26
0.0
 36
1.0
 17
0.0
 27
0.0
 37
0.0
 42
50.0
 43
0.0
 44
0.0
 45
299.3737365081025
 50
0.0
 51
0.0
 72
 20000
 90
    32768
  1

281
     0
 71
     1
 74
     0
110
0.0
120
0.0
130
0.0
111
1.0
121
0.0
131
0.0
112
0.0
122
1.0
132
0.0
 79
     0
146
0.0
170
     0
  0
VIEWPORT
  5
24CE
330
5E
100
AcDbEntity
 67
     1
  8
DEFPOINTS
100
AcDbViewport
 10
86.47821702592727
 20
562.3899901642308
 30
0.0
 40
185.7014191676817
 41
217.990353488962
 68
     2
 69
     2
 12
-19595.91581655745
 22
8603.470718958103
 13
0.0
 23
0.0
 14
1.0
 24
1.0
 15
1900.0
 25
1900.0
 16
0.0
 26
0.0
 36
1.0
 17
23187.54216236222
 27
34067.94128341666
 37
1200.0
 42
50.0
 43
0.0
 44
0.0
 45
1089.95176744481
 50
0.0
 51
0.0
 72
 20000
 90
    32768
  1

281
     0
 71
     1
 74
     0
110
0.0
120
0.0
130
0.0
111
1.0
121
0.0
131
0.0
112
0.0
122
1.0
132
0.0
 79
     0
146
0.0
170
     0
  0
MTEXT
  5
35D5
330
5E
100
AcDbEntity
 67
     1
  8
Text
100
AcDbMText
 10
97.91636424594527
 20
619.4518571131844
 30
0.0
 40
2.5
 41
39.71931491311648
 71
     1
 72
     5
  3
{\fSwis721 BT|b0|i1|c0|p34;Internal wall to project specification\P\PNon-fire rated backing rod and appropriate Holdfast & acoustic rated sealant to project specification\P\P\P\P\P\P\P\P\P\P\P\P\PType 4 wall\P\P\PAppropriate 10mm Holdfast fire & acou
  1
stic rated sealant between DPC and external panels}
  7
1
 73
     1
 44
1.0
1001
ACAD
1000
ACAD_MTEXT_DEFINED_HEIGHT_BEGIN
1070
    46
1040
2.08226242986052
1000
ACAD_MTEXT_DEFINED_HEIGHT_END
  0
MTEXT
  5
35D8
330
5E
100
AcDbEntity
 67
     1
  8
Text
100
AcDbMText
 10
125.7075293804755
 20
576.9691638622091
 30
0.0
 40
2.5
 41
0.0
 71
     4
 72
     1
  1
\A1;
  7
1
 73
     1
 44
1.0
  0
MTEXT
  5
35DC
330
5E
100
AcDbEntity
 67
     1
  8
Text
100
AcDbMText
 10
29.89868433104039
 20
504.8175822184204
 30
0.0
 40
2.5
 41
0.0
 71
     6
 72
     1
  1
\A1;
  7
1
 73
     1
 44
1.0
  0
INSERT
  5
3700
330
5E
100
AcDbEntity
 67
     1
  8
Border
100
AcDbBlockReference
 66
     1
  2
A4 Title Block
 10
44.77354284877242
 20
430.4046234490185
 30
0.0
  0
ATTRIB
  5
3701
330
3700
100
AcDbEntity
 67
     1
  8
Title block
100
AcDbText
 10
62.44845658770623
 20
432.5265309486157
 30
0.0
 40
4.0
  1
A.W.S. - Type 4 Wall to External Wall Junction
100
AcDbAttribute
  2
TITLE
 70
     0
1001
AcDbAttr
1070
     0
1070
     1
  0
ATTRIB
  5
3702
330
3700
100
AcDbEntity
 67
     1
  8
Title block
100
AcDbText
 10
57.18578387349885
 20
418.6487596854915
 30
0.0
 40
2.5
  1
December 2013
100
AcDbAttribute
  2
DATE
 70
     0
1001
AcDbAttr
1070
     0
1070
     1
  0
ATTRIB
  5
3703
330
3700
100
AcDbEntity
 67
     1
  8
Title block
100
AcDbText
 10
108.0098398502803
 20
418.4701899025223
 30
0.0
 40
2.5
  1
N.T.S.
100
AcDbAttribute
  2
SCALE
 70
     0
1001
AcDbAttr
1070
     0
1070
     1
  0
ATTRIB
  5
3704
330
3700
100
AcDbEntity
 67
     1
  8
Title block
100
AcDbText
 10
154.633967032805
 20
418.2538962921289
 30
0.0
 40
3.5
  1
10.2.7
100
AcDbAttribute
  2
DRGNO
 70
     0
1001
AcDbAttr
1070
     0
1070
     1
  0
ATTRIB
  5
3705
330
3700
100
AcDbEntity
 67
     1
  8
Title block
100
AcDbText
 10
97.25046360213923
 20
426.0181270142372
 30
0.0
 40
4.0
  1

100
AcDbAttribute
  2
TITLE2
 70
     0
1001
AcDbAttr
1070
     0
1070
     1
  0
SEQEND
  5
3706
330
3700
100
AcDbEntity
 67
     1
  8
Border
  0
LEADER
  5
4DD9
330
5E
100
AcDbEntity
 67
     1
  8
Text
100
AcDbLeader
  3
STANDARD
 72
     1
 76
     4
 10
74.1805761087121
 20
554.1359927427217
 30
0.0
 10
55.25429175217095
 20
540.4355678493129
 30
0.0
 10
36.55082783983323
 20
533.0657879547877
 30
0.0
 10
31.0626482714639
 20
532.7523097245923
 30
0.0
211
0.0000000000000003
221
1.0
231
0.0
213
-4.754555129981208
223
15.59802117963954
233
0.0
1001
ACAD
1000
DSTYLE
1002
{
1070
   147
1040
1.0
1070
    77
1070
     0
1002
}
  0
LEADER
  5
4DDD
330
5E
100
AcDbEntity
 67
     1
  8
Text
100
AcDbLeader
  3
STANDARD
 72
     1
 76
     4
 10
75.45709476765887
 20
579.7503500965937
 30
0.0
 10
83.0404274967184
 20
594.9097386396472
 30
0.0
 10
92.87807925087099
 20
605.4300023037183
 30
0.0
 10
96.57611243936912
 20
605.5633744357128
 30
0.0
1001
ACAD
1000
DSTYLE
1002
{
1070
   147
1040
1.0
1070
    77
1070
     0
1002
}
  0
MTEXT
  5
5ED2
102
{ACAD_XDICTIONARY
360
776D
102
}
330
5E
100
AcDbEntity
 67
     1
  8
Text
100
AcDbMText
 10
29.2573250222406
 20
613.712708565198
 30
0.0
 40
2.5
 41
33.36706590247036
 71
     3
 72
     5
  3
{\fSwis721 BT|b0|i1|c0|p34;Coating system to project specifications\P\P\PCIWS Supercrete\fSwis721 Blk BT|b0|i0|c0|p34;\U+2122\fSwis721 BT|b0|i1|c0|p34; Panel\P\P%%C6mm x 300mm long stainless steel dowels (3 per panel min.)\P\P\P\P\PBacking rod and ap
  1
propriate Holdfast fire & acoustic rated sealant\P\PVertical DPC full height of wall}
  7
1
 73
     1
 44
1.0
  0
LEADER
  5
5F01
330
5E
100
AcDbEntity
 67
     1
  8
Text
100
AcDbLeader
  3
STANDARD
 72
     1
 76
     4
 10
79.91079832130708
 20
603.4519333504938
 30
0.0
 10
84.00338940997972
 20
610.4300639758971
 30
0.0
 10
93.18605151585144
 20
618.0290574568132
 30
0.0
 10
97.01438123942693
 20
618.055682888277
 30
0.0
1001
ACAD
1000
DSTYLE
1002
{
1070
   147
1040
1.0
1070
    77
1070
     0
1002
}
  0
LEADER
  5
5F03
330
5E
100
AcDbEntity
 67
     1
  8
Text
100
AcDbLeader
  3
STANDARD
 72
     1
 76
     4
 10
74.8737890705861
 20
540.7702327480783
 30
0.0
 10
75.33168540417114
 20
533.7972421667175
 30
0.0
 10
89.78774332719899
 20
522.4072315729129
 30
0.0
 10
96.71171926672219
 20
522.4072315729129
 30
0.0
1001
ACAD
1000
DSTYLE
1002
{
1070
   147
1040
1.0
1070
    77
1070
     0
1002
}
  0
LEADER
  5
6587
330
5E
100
AcDbEntity
 67
     1
  8
Text
100
AcDbLeader
  3
STANDARD
 72
     1
 76
     4
 10
45.56875427291584
 20
560.8765783104599
 30
0.0
 10
40.71416510341873
 20
556.4576555334756
 30
0.0
 10
37.19199550897883
 20
553.8008674629304
 30
0.0
 10
31.42018764055001
 20
553.4803478295391
 30
0.0
211
0.0000000000000003
221
1.0
231
0.0
213
-4.754555129981208
223
15.59802117963954
233
0.0
1001
ACAD
1000
DSTYLE
1002
{
1070
   147
1040
1.0
1070
    77
1070
     0
1002
}
  0
LEADER
  5
6588
330
5E
100
AcDbEntity
 67
     1
  8
Text
100
AcDbLeader
  3
STANDARD
 72
     1
 73
     0
 40
2.5
 76
     4
 10
57.60684873543823
 20
570.9885216942536
 30
0.0
 10
50.86671003106085
 20
577.8820995712876
 30
0.0
 10
40.05113802149572
 20
582.5822661471659
 30
0.0
 10
31.58051522010578
 20
582.6476069679672
 30
0.0
340
35DC
213
5.469834377423012
223
4.523923366408894
233
0.0
1001
ACAD
1000
DSTYLE
1002
{
1070
   147
1040
1.0
1070
    77
1070
     0
1002
}
  0
LEADER
  5
6589
330
5E
100
AcDbEntity
 67
     1
  8
Text
100
AcDbLeader
  3
STANDARD
 72
     1
 76
     4
 10
59.59566005932356
 20
605.3633931554279
 30
0.0
 10
53.38512284214153
 20
601.5582479695191
 30
0.0
 10
39.75724321233725
 20
595.7888996342984
 30
0.0
 10
30.939202758394
 20
595.468380724596
 30
0.0
211
0.0000000000000003
221
1.0
231
0.0
213
-4.754555129981208
223
15.59802117963954
233
0.0
1001
ACAD
1000
DSTYLE
1002
{
1070
   147
1040
1.0
1070
    77
1070
     0
1002
}
  0
MTEXT
  5
71A9
330
5E
100
AcDbEntity
 67
     1
  8
Text
100
AcDbMText
 10
5.63798471493078
 20
565.6525476689685
 30
0.0
 40
2.5
 41
29.42059603001485
 71
     1
 72
     5
  1
{\fSwis721 BT|b0|i1|c0|p34;EXTERNAL SIDE}
  7
1
 73
     1
 44
1.0
1001
ACAD
1000
ACAD_MTEXT_DEFINED_HEIGHT_BEGIN
1070
    46
1040
2.08226242986052
1000
ACAD_MTEXT_DEFINED_HEIGHT_END
  0
LEADER
  5
74C8
330
5E
100
AcDbEntity
 67
     1
  8
Text
100
AcDbLeader
  3
STANDARD
 72
     1
 76
     4
 10
43.03554814808058
 20
606.4935453486987
 30
0.0
 10
38.94705535541925
 20
611.0649200749501
 30
0.0
 10
34.09630101236576
 20
612.2423952564563
 30
0.0
 10
30.77887517883823
 20
612.1353857397866
 30
0.0
211
0.0000000000000003
221
1.0
231
0.0
213
-4.754555129981208
223
15.59802117963954
233
0.0
1001
ACAD
1000
DSTYLE
1002
{
1070
   147
1040
1.0
1070
    77
1070
     0
1002
}
  0
LEADER
  5
74C9
330
5E
100
AcDbEntity
 67
     1
  8
Text
100
AcDbLeader
  3
STANDARD
 72
     1
 76
     4
 10
92.21443354502071
 20
551.8510298106541
 30
0.0
 10
91.44968140067362
 20
545.7359475814167
 30
0.0
 10
92.97918568936779
 20
535.225649389831
 30
0.0
 10
96.32934319454875
 20
535.2106852518431
 30
0.0
1001
ACAD
1000
DSTYLE
1002
{
1070
   147
1040
1.0
1070
    77
1070
     0
1002
}
  0
LINE
  5
751C
330
5E
100
AcDbEntity
 67
     1
  8
Text
100
AcDbLine
 10
96.1587638333474
 20
542.6821141789599
 30
0.0
 11
104.4043232000274
 21
542.6821141789613
 31
0.0
  0
LINE
  5
751D
330
5E
100
AcDbEntity
 67
     1
  8
Text
100
AcDbLine
 10
104.4043232000274
 20
542.6821141789613
 30
0.0
 11
104.4043232000274
 21
549.2255846204702
 31
0.0
  0
LINE
  5
751E
330
5E
100
AcDbEntity
 67
     1
  8
Text
100
AcDbLine
 10
104.4043232000274
 20
549.2255846204702
 30
0.0
 11
102.6510055795281
 21
542.6821141789609
 31
0.0
  0
HATCH
  5
7522
330
5E
100
AcDbEntity
 67
     1
  8
Text
100
AcDbHatch
 10
0.0
 20
0.0
 30
0.0
210
0.0
220
0.0
230
1.0
  2
SOLID
 70
     1
 71
     0
 91
        1
 92
        7
 72
     0
 73
     1
 93
        3
 10
104.4043232000274
 20
549.2255846204702
 10
102.6510055795281
 20
542.6821141789611
 10
104.4043232000274
 20
542.6821141789615
 97
        0
 75
     0
 76
     1
 47
0.0545996881292645
 98
        1
 10
104.0579190818369
 20
544.7142597470542
450
        0
451
        0
460
0.0
461
0.0
452
        1
462
1.0
453
        2
463
0.0
 63
     5
421
      255
463
1.0
 63
     7
421
 16777215
470
LINEAR
1001
ACAD
1010
98.93776900128385
1020
540.2078051727925
1030
0.0
  0
HATCH
  5
7529
330
5E
100
AcDbEntity
 67
     1
  8
Text
100
AcDbHatch
 10
0.0
 20
0.0
 30
0.0
210
0.0
220
0.0
230
1.0
  2
SOLID
 70
     1
 71
     0
 91
        1
 92
        7
 72
     0
 73
     1
 93
        3
 10
32.87471046588506
 20
549.2255846204702
 10
34.62802808638438
 20
542.6821141789611
 10
32.87471046588506
 20
542.6821141789615
 97
        0
 75
     0
 76
     1
 47
0.0545996881292645
 98
        1
 10
33.22111458407562
 20
544.7142597470542
450
        0
451
        0
460
0.0
461
0.0
452
        1
462
1.0
453
        2
463
0.0
 63
     5
421
      255
463
1.0
 63
     7
421
 16777215
470
LINEAR
1001
ACAD
1010
98.93776900128385
1020
540.2078051727925
1030
0.0
  0
LINE
  5
752A
330
5E
100
AcDbEntity
 67
     1
  8
Text
100
AcDbLine
 10
41.1202698325651
 20
542.6821141789599
 30
0.0
 11
32.87471046588507
 21
542.6821141789613
 31
0.0
  0
LINE
  5
752B
330
5E
100
AcDbEntity
 67
     1
  8
Text
100
AcDbLine
 10
32.87471046588507
 20
542.6821141789613
 30
0.0
 11
32.87471046588507
 21
549.2255846204702
 31
0.0
  0
LINE
  5
752C
330
5E
100
AcDbEntity
 67
     1
  8
Text
100
AcDbLine
 10
32.87471046588507
 20
549.2255846204702
 30
0.0
 11
34.62802808638441
 21
542.6821141789609
 31
0.0
  0
MTEXT
  5
752D
330
5E
100
AcDbEntity
 67
     1
  8
Text
100
AcDbMText
 10
35.32728715214034
 20
550.2572159522526
 30
0.0
 40
2.5
 41
3.972622512406815
 71
     1
 72
     5
  1
{\fSwis721 BT|b0|i1|c0|p34;A}
  7
1
 73
     1
 44
1.0
1001
ACAD
1000
ACAD_MTEXT_DEFINED_HEIGHT_BEGIN
1070
    46
1040
2.08226242986052
1000
ACAD_MTEXT_DEFINED_HEIGHT_END
  0
MTEXT
  5
752F
330
5E
100
AcDbEntity
 67
     1
  8
Text
100
AcDbMText
 10
100.0910520013599
 20
550.2572159522526
 30
0.0
 40
2.5
 41
2.338826671984179
 71
     1
 72
     5
  1
{\fSwis721 BT|b0|i1|c0|p34;A}
  7
1
 73
     1
 44
1.0
 90
        3
 63
   256
 45
1.3
441
  7798856
1001
ACAD
1000
ACAD_MTEXT_DEFINED_HEIGHT_BEGIN
1070
    46
1040
2.771516665135777
1000
ACAD_MTEXT_DEFINED_HEIGHT_END
  0
ENDSEC
  0
SECTION
  2
OBJECTS
  0
DICTIONARY
  5
562
330
0
100
AcDbDictionary
281
     1
  3
ACAD_2007HEADERVARS_RT
350
7A70
  3
ACAD_CIP_PREVIOUS_PRODUCT_INFO
350
76B3
  3
ACAD_COLOR
350
2F60
  3
ACAD_DETAILVIEWSTYLE
350
76A7
  3
ACAD_GROUP
350
560
  3
ACAD_IMAGE_DICT
350
3025
  3
ACAD_IMAGE_VARS
350
302E
  3
ACAD_LAYOUT
350
58C
  3
ACAD_MATERIAL
350
2F36
  3
ACAD_MLEADERSTYLE
350
2F85
  3
ACAD_MLINESTYLE
350
561
  3
ACAD_PLOTSETTINGS
350
58D
  3
ACAD_PLOTSTYLENAME
350
58A
  3
ACAD_SCALELIST
350
2F63
  3
ACAD_SECTIONVIEWSTYLE
350
76A4
  3
ACAD_TABLESTYLE
350
2F61
  3
ACAD_VISUALSTYLE
350
2F4F
  3
AcadDim
350
35D6
  3
ACDB_RECOMPOSE_DATA
350
7A6F
  3
AcDbVariableDictionary
350
599
  3
AcDsDecomposeData
350
7A78
  3
AEC_PROPERTY_SET_DEFS
350
36FF
  3
ASE_INDEX_DICTIONARY
350
596
  0
DICTIONARY
  5
2FC5
330
55B
100
AcDbDictionary
280
     1
281
     1
  0
DICTIONARY
  5
2C65
330
553
100
AcDbDictionary
280
     1
281
     1
  3
ACAD_LAYERFILTERS
360
2C66
  3
ACAD_LAYERSTATES
360
2FE7
  0
DICTIONARY
  5
2F90
330
24
100
AcDbDictionary
280
     1
281
     1
  3
ADSK_XREC_LAYER_RECONCILED
360
2F91
  0
DICTIONARY
  5
2FF7
330
2FF6
100
AcDbDictionary
280
     1
281
     1
  0
DICTIONARY
  5
2FF9
330
2FF8
100
AcDbDictionary
280
     1
281
     1
  0
DICTIONARY
  5
37C1
330
37C0
100
AcDbDictionary
280
     1
281
     1
  0
DICTIONARY
  5
7972
330
7971
100
AcDbDictionary
280
     1
281
     1
  0
DICTIONARY
  5
30CC
330
2
100
AcDbDictionary
280
     1
281
     1
  3
ACAD_SORTENTS
360
30CD
  0
DICTIONARY
  5
7523
330
5E
100
AcDbDictionary
280
     1
281
     1
  3
ACAD_SORTENTS
360
7524
  0
DICTIONARY
  5
3021
330
300A
100
AcDbDictionary
280
     1
281
     1
  3
ACAD_SORTENTS
360
798F
  0
IMAGEDEF_REACTOR
  5
798E
330
798D
100
AcDbRasterImageDefReactor
 90
        2
330
798D
  0
DICTIONARY
  5
79CB
330
79CA
100
AcDbDictionary
280
     1
281
     1
  3
ACAD_MTEXT_2008_RT
360
7AB5
  0
IMAGEDEF_REACTOR
  5
7A03
330
7A02
100
AcDbRasterImageDefReactor
 90
        2
330
7A02
  0
DICTIONARY
  5
776D
330
5ED2
100
AcDbDictionary
280
     1
281
     1
  3
ACAD_MTEXT_2008_RT
360
7A9F
  0
DICTIONARY
  5
7A70
102
{ACAD_REACTORS
330
562
102
}
330
562
100
AcDbDictionary
281
     1
  3
DIMFXL
350
7A71
  3
DIMJOGANG
350
7A72
  0
XRECORD
  5
76B3
102
{ACAD_REACTORS
330
562
102
}
330
562
100
AcDbXrecord
280
     1
300
ACD
300
2013
300
ACD_F_S
  0
DICTIONARY
  5
2F60
102
{ACAD_REACTORS
330
562
102
}
330
562
100
AcDbDictionary
281
     1
  0
DICTIONARY
  5
76A7
102
{ACAD_REACTORS
330
562
102
}
330
562
100
AcDbDictionary
281
     1
  3
Imperial24
350
76A8
  0
DICTIONARY
  5
560
102
{ACAD_REACTORS
330
562
102
}
330
562
100
AcDbDictionary
281
     1
  0
DICTIONARY
  5
3025
102
{ACAD_REACTORS
330
562
102
}
330
562
100
AcDbDictionary
281
     1
  3
Supercrete Hi Res
350
7990
  0
RASTERVARIABLES
  5
302E
102
{ACAD_REACTORS
330
562
102
}
330
562
100
AcDbRasterVariables
 90
        0
 70
     1
 71
     1
 72
     0
  0
DICTIONARY
  5
58C
102
{ACAD_REACTORS
330
562
102
}
330
562
100
AcDbDictionary
281
     1
  3
12.2.7
350
58F
  3
Model
350
58E
  0
DICTIONARY
  5
2F36
102
{ACAD_REACTORS
330
562
102
}
330
562
100
AcDbDictionary
281
     1
  3
ByBlock
350
2F3F
  3
ByLayer
350
2F37
  3
Global
350
2F47
  0
DICTIONARY
  5
2F85
102
{ACAD_REACTORS
330
562
102
}
330
562
100
AcDbDictionary
281
     1
  3
Standard
350
2F86
  0
DICTIONARY
  5
561
102
{ACAD_REACTORS
330
562
102
}
330
562
100
AcDbDictionary
281
     1
  3
STANDARD
350
563
  0
DICTIONARY
  5
58D
102
{ACAD_REACTORS
330
562
102
}
330
562
100
AcDbDictionary
281
     1
  3
A3_PDF
350
4F7C
  0
ACDBDICTIONARYWDFLT
  5
58A
102
{ACAD_REACTORS
330
562
102
}
330
562
100
AcDbDictionary
281
     1
  3
Normal
350
58B
100
AcDbDictionaryWithDefault
340
58B
  0
DICTIONARY
  5
2F63
102
{ACAD_REACTORS
330
562
102
}
330
562
100
AcDbDictionary
281
     1
  3
A0
350
2F64
  3
A1
350
2F65
  3
A2
350
2F66
  3
A3
350
2F67
  3
A4
350
2F68
  3
A5
350
2F69
  3
A6
350
2F6A
  3
A7
350
2F6B
  3
A8
350
2F6C
  3
A9
350
2F6D
  3
B0
350
2F6E
  3
B1
350
2F6F
  3
B2
350
2F70
  3
B3
350
2F71
  3
B4
350
2F72
  3
B5
350
2F73
  3
B6
350
2F74
  3
B7
350
2F75
  3
B8
350
2F76
  3
B9
350
2F77
  3
C0
350
2F78
  3
C1
350
2F79
  3
C2
350
2F7A
  3
C3
350
2F7B
  3
C4
350
2F7C
  3
C5
350
2F7D
  3
C6
350
2F7E
  3
C7
350
2F7F
  3
C8
350
2F80
  3
C9
350
2F81
  3
D0
350
2F82
  3
D1
350
2F83
  3
D2
350
2F84
  0
DICTIONARY
  5
76A4
102
{ACAD_REACTORS
330
562
102
}
330
562
100
AcDbDictionary
281
     1
  3
Imperial24
350
76A6
  0
DICTIONARY
  5
2F61
102
{ACAD_REACTORS
330
562
102
}
330
562
100
AcDbDictionary
281
     1
  3
Standard
350
2F62
  0
DICTIONARY
  5
2F4F
102
{ACAD_REACTORS
330
562
102
}
330
562
100
AcDbDictionary
281
     1
  3
2dWireframe
350
2F55
  3
3D Hidden
350
2F57
  3
3dWireframe
350
2F56
  3
Basic
350
2F54
  3
Brighten
350
2F5B
  3
ColorChange
350
2F5F
  3
Conceptual
350
2F58
  3
Dim
350
2F5A
  3
EdgeColorOff
350
76A3
  3
Facepattern
350
2F5E
  3
Flat
350
2F50
  3
FlatWithEdges
350
2F51
  3
Gouraud
350
2F52
  3
GouraudWithEdges
350
2F53
  3
Hidden
350
769B
  3
JitterOff
350
76A1
  3
Linepattern
350
2F5D
  3
OverhangOff
350
76A2
  3
Realistic
350
2F59
  3
Shaded
350
76A0
  3
Shaded with edges
350
769F
  3
Shades of Gray
350
769C
  3
Sketchy
350
769D
  3
Thicken
350
2F5C
  3
Wireframe
350
769A
  3
X-Ray
350
769E
  0
XRECORD
  5
35D6
102
{ACAD_REACTORS
330
562
102
}
330
562
100
AcDbXrecord
280
     1
 90
   990106
  3

 60
     0
 61
     0
 62
     2
 63
     2
 64
     0
 65
     1
 66
     0
 67
     4
 68
     1
 69
     0
 70
     0
 71
     0
 72
     0
 40
0.0
170
     1
340
35DC
  0
XRECORD
  5
7A6F
102
{ACAD_REACTORS
330
562
102
}
330
562
100
AcDbXrecord
280
     1
 90
        1
330
2F62
330
7A1D
330
7A1E
  0
DICTIONARY
  5
599
102
{ACAD_REACTORS
330
562
102
}
330
562
100
AcDbDictionary
281
     1
  3
CANNOSCALE
350
2FD3
  3
CMLEADERSTYLE
350
2FD2
  3
CTABLESTYLE
350
2FD1
  3
CVIEWDETAILSTYLE
350
7783
  3
CVIEWSECTIONSTYLE
350
7784
  3
DIMASSOC
350
59A
  0
DICTIONARY
  5
7A78
102
{ACAD_REACTORS
330
562
102
}
330
562
100
AcDbDictionary
281
     1
  3
AcDsRecords
350
7A7A
  3
AcDsSchemas
350
7A79
1001
ACAD
1070
     2
  0
DICTIONARY
  5
36FF
102
{ACAD_REACTORS
330
562
102
}
330
562
100
AcDbDictionary
281
     1
  0
DICTIONARY
  5
596
102
{ACAD_REACTORS
330
562
102
}
330
562
100
AcDbDictionary
281
     1
  3
ASEBlockHierarchyIndexRecord
350
598
1001
DCO15
1040
1440471924.124
  0
DICTIONARY
  5
2C66
102
{ACAD_REACTORS
330
2C65
102
}
330
2C65
100
AcDbDictionary
280
     1
281
     1
  3
DIMENSION
360
2C67
  3
HB_X
360
2C68
  0
DICTIONARY
  5
2FE7
102
{ACAD_REACTORS
330
2C65
102
}
330
2C65
100
AcDbDictionary
281
     1
  3
ACET-LAYISO
350
35F7
  0
XRECORD
  5
2F91
102
{ACAD_REACTORS
330
2F90
102
}
330
2F90
100
AcDbXrecord
280
     1
290
     1
  0
SORTENTSTABLE
  5
30CD
102
{ACAD_REACTORS
330
30CC
102
}
330
30CC
100
AcDbSortentsTable
330
2
331
290C
  5
4DC2
331
2923
  5
5E73
331
74C7
  5
5E69
331
4E89
  5
6013
331
79C8
  5
79ED
331
5E71
  5
6108
331
600E
  5
61DD
331
7A02
  5
79DE
331
79D5
  5
79F9
331
79F3
  5
79CF
331
6017
  5
720C
331
720B
  5
7232
331
7231
  5
7247
331
7443
  5
744C
331
723E
  5
743C
331
722F
  5
723F
331
75E5
  5
75E5
331
4E96
  5
6019
331
79DD
  5
7A01
331
79FB
  5
79D7
331
79CE
  5
79F2
331
6010
  5
7205
331
743C
  5
7446
331
744B
  5
74BB
331
7246
  5
37D4
331
7237
  5
743A
331
290B
  5
3C0C
331
600D
  5
610C
331
7230
  5
7246
331
7A01
  5
79DD
331
79D4
  5
79F8
331
79F2
  5
79CE
331
6016
  5
720B
331
720A
  5
7231
331
7442
  5
744B
331
723D
  5
743B
331
7217
  5
7239
331
75E4
  5
75E4
331
4E95
  5
6018
331
79DC
  5
7A00
331
79FA
  5
79D6
331
79CD
  5
79F1
331
5E3F
  5
4EC2
331
743B
  5
7445
331
744A
  5
74A3
331
7245
  5
2922
331
7236
  5
7439
331
746F
  5
724A
331
291F
  5
4EC1
331
600C
  5
610B
331
5E96
  5
4E81
331
5E5F
  5
6106
331
7218
  5
723D
331
79D3
  5
79F7
331
6015
  5
720A
331
7209
  5
375F
331
75DB
  5
75DB
331
7497
  5
5B73
331
7441
  5
744A
331
7207
  5
722F
331
4E8D
  5
6017
331
79DB
  5
79FF
331
79F9
  5
79D5
331
79CC
  5
79F0
331
743A
  5
7444
331
79F7
  5
79D3
331
7235
  5
724B
331
724B
  5
7442
331
7449
  5
7498
331
2909
  5
3BAE
331
7447
  5
7496
331
58E8
  5
4EC0
331
79D2
  5
79F6
331
79F0
  5
79CC
331
6014
  5
7209
331
7208
  5
7230
331
7206
  5
7218
331
7440
  5
7449
331
7496
  5
4FC2
331
74AD
  5
4EC3
331
5B70
  5
5FBF
331
4E8C
  5
6016
331
79DA
  5
79FE
331
79F8
  5
79D4
331
7448
  5
7497
331
79F6
  5
79D2
331
720E
  5
7235
331
7234
  5
7249
331
724A
  5
7441
331
7439
  5
7443
331
7446
  5
7495
331
75E8
  5
75E8
331
5EEB
  5
2910
331
79D1
  5
79F5
331
79EF
  5
79CA
331
6013
  5
7208
331
7205
  5
7217
331
7214
  5
7238
331
743F
  5
7448
331
7495
  5
5E5E
331
4E8B
  5
6015
331
371F
  5
5FC2
331
79D9
  5
79FD
331
79CA
  5
79EF
331
720D
  5
7234
331
79D7
  5
79FB
331
79F5
  5
79D1
331
6019
  5
720E
331
6190
  5
5E72
331
7233
  5
7248
331
7249
  5
7440
331
7445
  5
7494
331
75E7
  5
75E7
331
6009
  5
5E6A
331
4E98
  5
6105
331
6169
  5
7212
331
79D0
  5
79F4
331
79EE
  5
79C9
331
6012
  5
7207
331
743E
  5
7447
331
7494
  5
5E5D
331
7204
  5
7214
331
7213
  5
7237
331
7239
  5
5E44
331
2924
  5
5FC1
331
290D
  5
4EBF
331
4E8A
  5
6014
331
79D8
  5
79FC
331
79C9
  5
79EE
331
5E72
  5
6109
331
600F
  5
7204
331
7248
  5
743F
331
79D6
  5
79FA
331
79F4
  5
79D0
331
6018
  5
720D
331
720C
  5
7233
331
7232
  5
7213
331
7444
  5
7470
331
74A2
  5
5E5B
331
75E6
  5
75E6
331
4E97
  5
6104
331
79DE
  5
7A02
331
79ED
  5
79C8
331
79CF
  5
79F3
331
79C0
  5
79C0
331
6011
  5
7206
331
7493
  5
723E
331
7238
  5
5E71
331
7212
  5
7236
331
7247
  5
743E
  0
SORTENTSTABLE
  5
7524
102
{ACAD_REACTORS
330
7523
102
}
330
7523
100
AcDbSortentsTable
330
5E
331
6588
  5
6588
331
751E
  5
751F
331
35DC
  5
35DC
331
35D8
  5
35D8
331
5F03
  5
5F03
331
6589
  5
6589
331
24CE
  5
24CE
331
7522
  5
751C
331
5F
  5
5F
331
35D5
  5
35D5
331
751C
  5
751D
331
71A9
  5
71A9
331
3700
  5
3700
331
74C8
  5
74C8
331
5F01
  5
5F01
331
5ED2
  5
5ED2
331
6587
  5
6587
331
4DDD
  5
4DDD
331
751D
  5
751E
331
4DD9
  5
4DD9
331
74C9
  5
74C9
  0
SORTENTSTABLE
  5
798F
102
{ACAD_REACTORS
330
3021
102
}
330
3021
100
AcDbSortentsTable
330
300A
  0
XRECORD
  5
7AB5
102
{ACAD_REACTORS
330
79CB
102
}
330
79CB
100
AcDbXrecord
280
     1
 40
5034916.0
  1
{\fSwis721 BT|b0|i1|c0|p34;Coating system to project specifications\P\P\PCIWS Supercrete\fSwis721 Blk BT|b0|i0|c0|p34;™\fSwis721 BT|b0|i1|c0|p34; Panel\P\P%%C6mm x 300mm long stainless steel dowels (3 per panel min.)\P\P\P\P\PBacking rod and appropri
  1
ate Holdfast fire & acoustic rated sealant\P\PVertical DPC full height of wall}
  0
XRECORD
  5
7A9F
102
{ACAD_REACTORS
330
776D
102
}
330
776D
100
AcDbXrecord
280
     1
 40
5034916.0
  1
{\fSwis721 BT|b0|i1|c0|p34;Coating system to project specifications\P\P\PCIWS Supercrete\fSwis721 Blk BT|b0|i0|c0|p34;™\fSwis721 BT|b0|i1|c0|p34; Panel\P\P%%C6mm x 300mm long stainless steel dowels (3 per panel min.)\P\P\P\P\PBacking rod and appropri
  1
ate Holdfast fire & acoustic rated sealant\P\PVertical DPC full height of wall}
  0
XRECORD
  5
7A71
102
{ACAD_REACTORS
330
7A70
102
}
330
7A70
100
AcDbXrecord
280
     1
 40
1.25
  0
XRECORD
  5
7A72
102
{ACAD_REACTORS
330
7A70
102
}
330
7A70
100
AcDbXrecord
280
     1
 40
1.570796326794896
  0
ACDBDETAILVIEWSTYLE
  5
76A8
102
{ACAD_REACTORS
330
76A7
102
}
330
76A7
100
AcDbModelDocViewStyle
 70
     0
  3
Imperial24
290
     0
100
AcDbDetailViewStyle
 70
     0
 71
     0
 90
        3
 71
     1
340
555
 62
   256
 40
0.24
340
0
 62
   256
 40
0.24
300

 40
0.36
280
     3
 71
     2
340
5
 90
       25
 62
   256
 71
     3
340
555
 62
   256
 40
0.24
 90
        1
 40
0.75
 90
        1
300
%<\AcVar ViewType \f "%tc1">% %<\AcVar ViewDetailId>%\PSCALE %<\AcVar ViewScale \f "%sn">%
 71
     4
340
5
 90
       25
 62
   256
340
5
 90
       25
 62
   256
280
     0
  0
IMAGEDEF
  5
7990
102
{ACAD_REACTORS
330
798E
330
3025
330
7A03
102
}
330
3025
100
AcDbRasterImageDef
 90
        0
  1
Supercrete Hi Res.jpg
 10
1367.0
 20
308.0
 11
0.0846666666666667
 21
0.0846666666666667
280
     1
281
     5
  0
LAYOUT
  5
58F
102
{ACAD_XDICTIONARY
360
2FEB
102
}
102
{ACAD_REACTORS
330
58C
102
}
330
58C
100
AcDbPlotSettings
  1

  2
Adobe PDF.pc3
  4
A4
  6

 40
3.174999952316284
 41
3.174999952316284
 42
3.175003051757812
 43
3.17498779296875
 44
209.9733276367187
 45
297.0318298339844
 46
0.0
 47
0.0
 48
-18.13873906734903
 49
401.3216390553216
140
171.861260932651
141
684.3216390553216
142
1.0
143
1.0
 70
   672
 72
     1
 73
     0
 74
     5
  7
Hebel monochrome.ctb
 75
    16
147
0.9999999999999998
 76
     0
 77
     2
 78
   300
148
18.13873906734903
149
-401.3216390553216
100
AcDbLayout
  1
12.2.7
 70
     0
 71
     1
 10
-21.31373901966532
 20
398.1466391030053
 11
188.6595886170535
 21
695.1784689369897
 12
0.0
 22
0.0
 32
0.0
 14
-8.620697353466766
 24
409.2057133997633
 34
0.0
 15
181.5578812649871
 25
685.808768873854
 35
0.0
146
0.0
 13
0.0
 23
0.0
 33
0.0
 16
1.0
 26
0.0
 36
0.0
 17
0.0
 27
1.0
 37
0.0
 76
     0
330
5E
331
5F
1001
ACAD_PSEXT
1000
Adobe PDF.pc3
1000
Adobe PDF Converter
1000
Documents\*.pdf
1000

1070
     0
  0
LAYOUT
  5
58E
102
{ACAD_REACTORS
330
58C
102
}
330
58C
100
AcDbPlotSettings
  1

  2
Adobe PDF.pc3
  4
A4
  6

 40
3.174999952316284
 41
3.174999952316284
 42
3.175003051757812
 43
3.17498779296875
 44
209.9733276367187
 45
297.0318298339844
 46
-107.367475574938
 47
2.190099561879094
 48
0.0
 49
0.0
140
0.0
141
0.0
142
1.0
143
5.0
 70
 11940
 72
     1
 73
     0
 74
     0
  7
Hebel monochrome.ctb
 75
     0
147
0.0973439926588168
 76
     0
 77
     2
 78
   300
148
20641.84690124265
149
-7813.187325398498
100
AcDbLayout
  1
Model
 70
     1
 71
     0
 10
0.0
 20
0.0
 11
12.0
 21
9.0
 12
0.0
 22
0.0
 32
0.0
 14
0.0
 24
0.0
 34
0.0
 15
0.0
 25
0.0
 35
0.0
146
0.0
 13
0.0
 23
0.0
 33
0.0
 16
1.0
 26
0.0
 36
0.0
 17
0.0
 27
1.0
 37
0.0
 76
     0
330
2
331
2F34
1001
ACAD_PSEXT
1000
Adobe PDF.pc3
1000
Adobe PDF Converter
1000
Documents\*.pdf
1000

1070
     0
  0
MATERIAL
  5
2F3F
102
{ACAD_XDICTIONARY
360
2F40
102
}
102
{ACAD_REACTORS
330
2F36
102
}
330
2F36
100
AcDbMaterial
  1
ByBlock
 72
     0
 43
0.0208333333333333
 43
0.0
 43
0.0
 43
0.0
 43
0.0
 43
0.0208333333333333
 43
0.0
 43
0.0
 43
0.0
 43
0.0
 43
1.0
 43
0.0
 43
0.0
 43
0.0
 43
0.0
 43
1.0
 77
     0
 47
0.0208333333333333
 47
0.0
 47
0.0
 47
0.0
 47
0.0
 47
0.0208333333333333
 47
0.0
 47
0.0
 47
0.0
 47
0.0
 47
1.0
 47
0.0
 47
0.0
 47
0.0
 47
0.0
 47
1.0
171
     0
 49
0.0208333333333333
 49
0.0
 49
0.0
 49
0.0
 49
0.0
 49
0.0208333333333333
 49
0.0
 49
0.0
 49
0.0
 49
0.0
 49
1.0
 49
0.0
 49
0.0
 49
0.0
 49
0.0
 49
1.0
175
     0
142
0.0208333333333333
142
0.0
142
0.0
142
0.0
142
0.0
142
0.0208333333333333
142
0.0
142
0.0
142
0.0
142
0.0
142
1.0
142
0.0
142
0.0
142
0.0
142
0.0
142
1.0
179
     0
144
0.0208333333333333
144
0.0
144
0.0
144
0.0
144
0.0
144
0.0208333333333333
144
0.0
144
0.0
144
0.0
144
0.0
144
1.0
144
0.0
144
0.0
144
0.0
144
0.0
144
1.0
147
0.0208333333333333
147
0.0
147
0.0
147
0.0
147
0.0
147
0.0208333333333333
147
0.0
147
0.0
147
0.0
147
0.0
147
1.0
147
0.0
147
0.0
147
0.0
147
0.0
147
1.0
  0
MATERIAL
  5
2F37
102
{ACAD_XDICTIONARY
360
2F38
102
}
102
{ACAD_REACTORS
330
2F36
102
}
330
2F36
100
AcDbMaterial
  1
ByLayer
 72
     0
 43
0.0208333333333333
 43
0.0
 43
0.0
 43
0.0
 43
0.0
 43
0.0208333333333333
 43
0.0
 43
0.0
 43
0.0
 43
0.0
 43
1.0
 43
0.0
 43
0.0
 43
0.0
 43
0.0
 43
1.0
 77
     0
 47
0.0208333333333333
 47
0.0
 47
0.0
 47
0.0
 47
0.0
 47
0.0208333333333333
 47
0.0
 47
0.0
 47
0.0
 47
0.0
 47
1.0
 47
0.0
 47
0.0
 47
0.0
 47
0.0
 47
1.0
171
     0
 49
0.0208333333333333
 49
0.0
 49
0.0
 49
0.0
 49
0.0
 49
0.0208333333333333
 49
0.0
 49
0.0
 49
0.0
 49
0.0
 49
1.0
 49
0.0
 49
0.0
 49
0.0
 49
0.0
 49
1.0
175
     0
142
0.0208333333333333
142
0.0
142
0.0
142
0.0
142
0.0
142
0.0208333333333333
142
0.0
142
0.0
142
0.0
142
0.0
142
1.0
142
0.0
142
0.0
142
0.0
142
0.0
142
1.0
179
     0
144
0.0208333333333333
144
0.0
144
0.0
144
0.0
144
0.0
144
0.0208333333333333
144
0.0
144
0.0
144
0.0
144
0.0
144
1.0
144
0.0
144
0.0
144
0.0
144
0.0
144
1.0
147
0.0208333333333333
147
0.0
147
0.0
147
0.0
147
0.0
147
0.0208333333333333
147
0.0
147
0.0
147
0.0
147
0.0
147
1.0
147
0.0
147
0.0
147
0.0
147
0.0
147
1.0
  0
MATERIAL
  5
2F47
102
{ACAD_XDICTIONARY
360
2F48
102
}
102
{ACAD_REACTORS
330
2F36
102
}
330
2F36
100
AcDbMaterial
  1
Global
 72
     0
 43
0.0208333333333333
 43
0.0
 43
0.0
 43
0.0
 43
0.0
 43
0.0208333333333333
 43
0.0
 43
0.0
 43
0.0
 43
0.0
 43
1.0
 43
0.0
 43
0.0
 43
0.0
 43
0.0
 43
1.0
 77
     0
 47
0.0208333333333333
 47
0.0
 47
0.0
 47
0.0
 47
0.0
 47
0.0208333333333333
 47
0.0
 47
0.0
 47
0.0
 47
0.0
 47
1.0
 47
0.0
 47
0.0
 47
0.0
 47
0.0
 47
1.0
171
     0
 49
0.0208333333333333
 49
0.0
 49
0.0
 49
0.0
 49
0.0
 49
0.0208333333333333
 49
0.0
 49
0.0
 49
0.0
 49
0.0
 49
1.0
 49
0.0
 49
0.0
 49
0.0
 49
0.0
 49
1.0
175
     0
142
0.0208333333333333
142
0.0
142
0.0
142
0.0
142
0.0
142
0.0208333333333333
142
0.0
142
0.0
142
0.0
142
0.0
142
1.0
142
0.0
142
0.0
142
0.0
142
0.0
142
1.0
179
     0
144
0.0208333333333333
144
0.0
144
0.0
144
0.0
144
0.0
144
0.0208333333333333
144
0.0
144
0.0
144
0.0
144
0.0
144
1.0
144
0.0
144
0.0
144
0.0
144
0.0
144
1.0
147
0.0208333333333333
147
0.0
147
0.0
147
0.0
147
0.0
147
0.0208333333333333
147
0.0
147
0.0
147
0.0
147
0.0
147
1.0
147
0.0
147
0.0
147
0.0
147
0.0
147
1.0
  0
MLEADERSTYLE
  5
2F86
102
{ACAD_REACTORS
330
2F85
102
}
330
2F85
100
AcDbMLeaderStyle
170
     2
171
     1
172
     0
 90
        2
 40
0.0
 41
0.0
173
     1
 91
-1056964608
340
557
 92
       -2
290
     1
 42
0.09
291
     1
 43
0.36
  3
Standard
 44
0.18
300

342
555
174
     1
178
     6
175
     1
176
     0
 93
-1056964608
 45
0.18
292
     0
297
     0
 46
0.18
 94
-1056964608
 47
1.0
 49
1.0
140
1.0
293
     1
141
0.0
294
     1
177
     0
142
1.0
295
     0
296
     0
143
0.125
1001
ACAD_MLEADERVER
1070
     2
  0
MLINESTYLE
  5
563
102
{ACAD_REACTORS
330
561
102
}
330
561
100
AcDbMlineStyle
  2
STANDARD
 70
     0
  3

 62
   256
 51
90.0
 52
90.0
 71
     2
 49
0.5
 62
   256
  6
BYLAYER
 49
-0.5
 62
   256
  6
BYLAYER
  0
PLOTSETTINGS
  5
4F7C
102
{ACAD_REACTORS
330
58D
102
}
330
58D
100
AcDbPlotSettings
  1
A3_PDF
  2
Adobe PDF
  4
A4
  6

 40
3.174999952316284
 41
3.174999952316284
 42
3.175003051757812
 43
3.17498779296875
 44
209.9733276367187
 45
297.0318298339844
 46
0.0
 47
2.419603640926112
 48
132495.994355
 49
-42479.296146
140
140025.935292
141
-39421.803838
142
1.0
143
3.646511884082726
 70
  3764
 72
     1
 73
     0
 74
     1
  7
MyBW.ctb
 75
     0
147
0.2742346746119403
 76
     1
 77
     2
 78
   300
148
0.0453119052781403
149
60.0636080096233
1001
ACAD_PSEXT
1000
Adobe PDF
1000
Adobe PDF Converter
1000
Documents\*.pdf
1000

1070
     0
  0
ACDBPLACEHOLDER
  5
58B
102
{ACAD_REACTORS
330
58A
102
}
330
58A
  0
SCALE
  5
2F64
102
{ACAD_REACTORS
330
2F63
102
}
330
2F63
100
AcDbScale
 70
     0
300
1:1
140
1.0
141
1.0
290
     1
  0
SCALE
  5
2F65
102
{ACAD_REACTORS
330
2F63
102
}
330
2F63
100
AcDbScale
 70
     0
300
1:2
140
1.0
141
2.0
290
     0
  0
SCALE
  5
2F66
102
{ACAD_REACTORS
330
2F63
102
}
330
2F63
100
AcDbScale
 70
     0
300
1:4
140
1.0
141
4.0
290
     0
  0
SCALE
  5
2F67
102
{ACAD_REACTORS
330
2F63
102
}
330
2F63
100
AcDbScale
 70
     0
300
1:5
140
1.0
141
5.0
290
     0
  0
SCALE
  5
2F68
102
{ACAD_REACTORS
330
2F63
102
}
330
2F63
100
AcDbScale
 70
     0
300
1:8
140
1.0
141
8.0
290
     0
  0
SCALE
  5
2F69
102
{ACAD_REACTORS
330
2F63
102
}
330
2F63
100
AcDbScale
 70
     0
300
1:10
140
1.0
141
10.0
290
     0
  0
SCALE
  5
2F6A
102
{ACAD_REACTORS
330
2F63
102
}
330
2F63
100
AcDbScale
 70
     0
300
1:16
140
1.0
141
16.0
290
     0
  0
SCALE
  5
2F6B
102
{ACAD_REACTORS
330
2F63
102
}
330
2F63
100
AcDbScale
 70
     0
300
1:20
140
1.0
141
20.0
290
     0
  0
SCALE
  5
2F6C
102
{ACAD_REACTORS
330
2F63
102
}
330
2F63
100
AcDbScale
 70
     0
300
1:30
140
1.0
141
30.0
290
     0
  0
SCALE
  5
2F6D
102
{ACAD_REACTORS
330
2F63
102
}
330
2F63
100
AcDbScale
 70
     0
300
1:40
140
1.0
141
40.0
290
     0
  0
SCALE
  5
2F6E
102
{ACAD_REACTORS
330
2F63
102
}
330
2F63
100
AcDbScale
 70
     0
300
1:50
140
1.0
141
50.0
290
     0
  0
SCALE
  5
2F6F
102
{ACAD_REACTORS
330
2F63
102
}
330
2F63
100
AcDbScale
 70
     0
300
1:100
140
1.0
141
100.0
290
     0
  0
SCALE
  5
2F70
102
{ACAD_REACTORS
330
2F63
102
}
330
2F63
100
AcDbScale
 70
     0
300
2:1
140
2.0
141
1.0
290
     0
  0
SCALE
  5
2F71
102
{ACAD_REACTORS
330
2F63
102
}
330
2F63
100
AcDbScale
 70
     0
300
4:1
140
4.0
141
1.0
290
     0
  0
SCALE
  5
2F72
102
{ACAD_REACTORS
330
2F63
102
}
330
2F63
100
AcDbScale
 70
     0
300
8:1
140
8.0
141
1.0
290
     0
  0
SCALE
  5
2F73
102
{ACAD_REACTORS
330
2F63
102
}
330
2F63
100
AcDbScale
 70
     0
300
10:1
140
10.0
141
1.0
290
     0
  0
SCALE
  5
2F74
102
{ACAD_REACTORS
330
2F63
102
}
330
2F63
100
AcDbScale
 70
     0
300
100:1
140
100.0
141
1.0
290
     0
  0
SCALE
  5
2F75
102
{ACAD_REACTORS
330
2F63
102
}
330
2F63
100
AcDbScale
 70
     0
300
1/128" = 1'-0"
140
0.0078125
141
12.0
290
     0
  0
SCALE
  5
2F76
102
{ACAD_REACTORS
330
2F63
102
}
330
2F63
100
AcDbScale
 70
     0
300
1/64" = 1'-0"
140
0.015625
141
12.0
290
     0
  0
SCALE
  5
2F77
102
{ACAD_REACTORS
330
2F63
102
}
330
2F63
100
AcDbScale
 70
     0
300
1/32" = 1'-0"
140
0.03125
141
12.0
290
     0
  0
SCALE
  5
2F78
102
{ACAD_REACTORS
330
2F63
102
}
330
2F63
100
AcDbScale
 70
     0
300
1/16" = 1'-0"
140
0.0625
141
12.0
290
     0
  0
SCALE
  5
2F79
102
{ACAD_REACTORS
330
2F63
102
}
330
2F63
100
AcDbScale
 70
     0
300
3/32" = 1'-0"
140
0.09375
141
12.0
290
     0
  0
SCALE
  5
2F7A
102
{ACAD_REACTORS
330
2F63
102
}
330
2F63
100
AcDbScale
 70
     0
300
1/8" = 1'-0"
140
0.125
141
12.0
290
     0
  0
SCALE
  5
2F7B
102
{ACAD_REACTORS
330
2F63
102
}
330
2F63
100
AcDbScale
 70
     0
300
3/16" = 1'-0"
140
0.1875
141
12.0
290
     0
  0
SCALE
  5
2F7C
102
{ACAD_REACTORS
330
2F63
102
}
330
2F63
100
AcDbScale
 70
     0
300
1/4" = 1'-0"
140
0.25
141
12.0
290
     0
  0
SCALE
  5
2F7D
102
{ACAD_REACTORS
330
2F63
102
}
330
2F63
100
AcDbScale
 70
     0
300
3/8" = 1'-0"
140
0.375
141
12.0
290
     0
  0
SCALE
  5
2F7E
102
{ACAD_REACTORS
330
2F63
102
}
330
2F63
100
AcDbScale
 70
     0
300
1/2" = 1'-0"
140
0.5
141
12.0
290
     0
  0
SCALE
  5
2F7F
102
{ACAD_REACTORS
330
2F63
102
}
330
2F63
100
AcDbScale
 70
     0
300
3/4" = 1'-0"
140
0.75
141
12.0
290
     0
  0
SCALE
  5
2F80
102
{ACAD_REACTORS
330
2F63
102
}
330
2F63
100
AcDbScale
 70
     0
300
1" = 1'-0"
140
1.0
141
12.0
290
     0
  0
SCALE
  5
2F81
102
{ACAD_REACTORS
330
2F63
102
}
330
2F63
100
AcDbScale
 70
     0
300
1-1/2" = 1'-0"
140
1.5
141
12.0
290
     0
  0
SCALE
  5
2F82
102
{ACAD_REACTORS
330
2F63
102
}
330
2F63
100
AcDbScale
 70
     0
300
3" = 1'-0"
140
3.0
141
12.0
290
     0
  0
SCALE
  5
2F83
102
{ACAD_REACTORS
330
2F63
102
}
330
2F63
100
AcDbScale
 70
     0
300
6" = 1'-0"
140
6.0
141
12.0
290
     0
  0
SCALE
  5
2F84
102
{ACAD_REACTORS
330
2F63
102
}
330
2F63
100
AcDbScale
 70
     0
300
1'-0" = 1'-0"
140
12.0
141
12.0
290
     0
  0
ACDBSECTIONVIEWSTYLE
  5
76A6
102
{ACAD_REACTORS
330
76A4
102
}
330
76A4
100
AcDbModelDocViewStyle
 70
     0
  3
Imperial24
290
     0
100
AcDbSectionViewStyle
 70
     0
 71
     0
 90
       78
 71
     1
340
555
 62
   256
 40
0.24
340
0
340
0
 62
   256
 40
0.24
300
I, O, Q, S, X, Z
 40
0.48
 90
        3
 40
0.18
 90
        1
 71
     2
340
76A5
 90
       25
 62
   256
340
5
 90
       50
 62
   256
 40
0.24
 40
0.0
 40
0.24
 71
     3
340
555
 62
   256
 40
0.24
 90
        1
 40
0.75
 90
        1
300
%<\AcVar ViewType \f "%tc1">% %<\AcVar ViewSectionStartId>%-%<\AcVar ViewSectionEndId>%\PSCALE %<\AcVar ViewScale \f "%sn">%
 71
     4
 62
   256
 62
   257
300
ANSI31
 40
1.0
 90
        0
290
     0
290
     0
 90
        6
 40
0.0
 40
1.570796326794896
 40
0.2617993877991494
 40
1.308996938995747
 40
-0.2617993877991494
 40
1.832595714594046
  0
TABLESTYLE
  5
2F62
102
{ACAD_XDICTIONARY
360
2FC0
102
}
102
{ACAD_REACTORS
330
2F61
102
}
330
2F61
100
AcDbTableStyle
  3
Standard
 70
     0
 71
     0
 40
0.06
 41
0.06
280
     0
281
     0
  7
STANDARD
140
0.18
170
     2
 62
     0
 63
     7
283
     0
274
    -2
284
     1
 64
     0
275
    -2
285
     1
 65
     0
276
    -2
286
     1
 66
     0
277
    -2
287
     1
 67
     0
278
    -2
288
     1
 68
     0
279
    -2
289
     1
 69
     0
  7
STANDARD
140
0.25
170
     5
 62
     0
 63
     7
283
     0
274
    -2
284
     1
 64
     0
275
    -2
285
     1
 65
     0
276
    -2
286
     1
 66
     0
277
    -2
287
     1
 67
     0
278
    -2
288
     1
 68
     0
279
    -2
289
     1
 69
     0
  7
STANDARD
140
0.18
170
     5
 62
     0
 63
     7
283
     0
274
    -2
284
     1
 64
     0
275
    -2
285
     1
 65
     0
276
    -2
286
     1
 66
     0
277
    -2
287
     1
 67
     0
278
    -2
288
     1
 68
     0
279
    -2
289
     1
 69
     0
  0
VISUALSTYLE
  5
2F55
102
{ACAD_XDICTIONARY
360
7A88
102
}
102
{ACAD_REACTORS
330
2F4F
102
}
330
2F4F
100
AcDbVisualStyle
  2
2dWireframe
 70
     4
 71
     0
 72
     2
 73
     0
 90
        0
 40
-0.6
 41
-30.0
 62
     5
 63
     7
421
 16777215
 74
     1
 91
        4
 64
     7
 65
   257
 75
     1
175
     1
 42
1.0
 92
        0
 66
   257
 43
1.0
 76
     1
 77
     6
 78
     2
 67
     7
 79
     5
170
     0
171
     0
290
     0
174
     0
 93
        1
 44
0.0
173
     0
291
     0
 45
0.0
1001
ACAD
1000
AcDbSavedByObjectVersion
1070
     0
  0
VISUALSTYLE
  5
2F57
102
{ACAD_XDICTIONARY
360
7A8C
102
}
102
{ACAD_REACTORS
330
2F4F
102
}
330
2F4F
100
AcDbVisualStyle
  2
3D Hidden
 70
     6
 71
     1
 72
     2
 73
     2
 90
        0
 40
-0.6
 41
-30.0
 62
     5
 63
     7
421
 16777215
 74
     2
 91
        2
 64
     7
 65
   257
 75
     2
175
     1
 42
40.0
 92
        0
 66
   257
 43
1.0
 76
     1
 77
     6
 78
     2
 67
     7
 79
     3
170
     0
171
     0
290
     0
174
     0
 93
        1
 44
0.0
173
     0
291
     0
 45
0.0
1001
ACAD
1000
AcDbSavedByObjectVersion
1070
     0
  0
VISUALSTYLE
  5
2F56
102
{ACAD_XDICTIONARY
360
7A8A
102
}
102
{ACAD_REACTORS
330
2F4F
102
}
330
2F4F
100
AcDbVisualStyle
  2
3dWireframe
 70
     5
 71
     0
 72
     2
 73
     0
 90
        0
 40
-0.6
 41
-30.0
 62
     5
 63
     7
421
 16777215
 74
     1
 91
        4
 64
     7
 65
   257
 75
     1
175
     1
 42
1.0
 92
        0
 66
   257
 43
1.0
 76
     1
 77
     6
 78
     2
 67
     7
 79
     5
170
     0
171
     0
290
     0
174
     0
 93
        1
 44
0.0
173
     0
291
     0
 45
0.0
1001
ACAD
1000
AcDbSavedByObjectVersion
1070
     0
  0
VISUALSTYLE
  5
2F54
102
{ACAD_XDICTIONARY
360
7A86
102
}
102
{ACAD_REACTORS
330
2F4F
102
}
330
2F4F
100
AcDbVisualStyle
  2
Basic
 70
     7
 71
     1
 72
     0
 73
     1
 90
        0
 40
-0.6
 41
-30.0
 62
     5
 63
     7
421
 16777215
 74
     0
 91
        4
 64
     7
 65
   257
 75
     1
175
     1
 42
1.0
 92
        8
 66
     7
 43
1.0
 76
     1
 77
     6
 78
     2
 67
     7
 79
     5
170
     0
171
     0
290
     0
174
     0
 93
        1
 44
0.0
173
     0
291
     1
 45
0.0
1001
ACAD
1000
AcDbSavedByObjectVersion
1070
     0
  0
VISUALSTYLE
  5
2F5B
102
{ACAD_XDICTIONARY
360
7A94
102
}
102
{ACAD_REACTORS
330
2F4F
102
}
330
2F4F
100
AcDbVisualStyle
  2
Brighten
 70
    12
 71
     2
 72
     2
 73
     0
 90
        0
 40
-0.6
 41
-30.0
 62
     5
 63
     7
421
 16777215
 74
     1
 91
        4
 64
     7
 65
   257
 75
     1
175
     1
 42
1.0
 92
        8
 66
     7
 43
1.0
 76
     1
 77
     6
 78
     2
 67
     7
 79
     5
170
     0
171
     0
290
     0
174
     0
 93
        1
 44
50.0
173
     0
291
     1
 45
0.0
1001
ACAD
1000
AcDbSavedByObjectVersion
1070
     0
  0
VISUALSTYLE
  5
2F5F
102
{ACAD_XDICTIONARY
360
7A9C
102
}
102
{ACAD_REACTORS
330
2F4F
102
}
330
2F4F
100
AcDbVisualStyle
  2
ColorChange
 70
    16
 71
     2
 72
     2
 73
     3
 90
        0
 40
-0.6
 41
-30.0
 62
     5
 63
     8
421
  8421504
 74
     1
 91
        4
 64
     7
 65
   257
 75
     1
175
     1
 42
1.0
 92
        8
 66
     8
424
  8421504
 43
1.0
 76
     1
 77
     6
 78
     2
 67
     7
 79
     5
170
     0
171
     0
290
     0
174
     0
 93
        1
 44
0.0
173
     0
291
     1
 45
0.0
1001
ACAD
1000
AcDbSavedByObjectVersion
1070
     0
  0
VISUALSTYLE
  5
2F58
102
{ACAD_XDICTIONARY
360
7A8E
102
}
102
{ACAD_REACTORS
330
2F4F
102
}
330
2F4F
100
AcDbVisualStyle
  2
Conceptual
 70
     9
 71
     3
 72
     2
 73
     0
 90
        0
 40
-0.6
 41
-30.0
 62
     5
 63
     7
421
 16777215
 74
     2
 91
        2
 64
     7
 65
   257
 75
     1
175
     1
 42
40.0
 92
        8
 66
     7
 43
1.0
 76
     1
 77
     6
 78
     2
 67
     7
 79
     3
170
     0
171
     0
290
     0
174
     0
 93
        1
 44
0.0
173
     0
291
     0
 45
0.0
1001
ACAD
1000
AcDbSavedByObjectVersion
1070
     0
  0
VISUALSTYLE
  5
2F5A
102
{ACAD_XDICTIONARY
360
7A92
102
}
102
{ACAD_REACTORS
330
2F4F
102
}
330
2F4F
100
AcDbVisualStyle
  2
Dim
 70
    11
 71
     2
 72
     2
 73
     0
 90
        0
 40
-0.6
 41
-30.0
 62
     5
 63
     7
421
 16777215
 74
     1
 91
        4
 64
     7
 65
   257
 75
     1
175
     1
 42
1.0
 92
        8
 66
     7
 43
1.0
 76
     1
 77
     6
 78
     2
 67
     7
 79
     5
170
     0
171
     0
290
     0
174
     0
 93
        1
 44
-50.0
173
     0
291
     1
 45
0.0
1001
ACAD
1000
AcDbSavedByObjectVersion
1070
     0
  0
VISUALSTYLE
  5
76A3
102
{ACAD_XDICTIONARY
360
7AB2
102
}
102
{ACAD_REACTORS
330
2F4F
102
}
330
2F4F
100
AcDbVisualStyle
  2
EdgeColorOff
 70
    22
 71
     2
 72
     2
 73
     0
 90
        0
 40
-0.6
 41
-30.0
 62
     5
 63
     7
421
 16777215
 74
     1
 91
        4
 64
     7
 65
   257
 75
     1
175
     1
 42
1.0
 92
        8
 66
     7
 43
1.0
 76
     1
 77
     6
 78
     2
 67
     7
 79
     5
170
     0
171
     0
290
     0
174
     0
 93
        1
 44
0.0
173
     0
291
     1
 45
0.0
1001
ACAD
1000
AcDbSavedByObjectVersion
1070
     0
  0
VISUALSTYLE
  5
2F5E
102
{ACAD_XDICTIONARY
360
7A9A
102
}
102
{ACAD_REACTORS
330
2F4F
102
}
330
2F4F
100
AcDbVisualStyle
  2
Facepattern
 70
    15
 71
     2
 72
     2
 73
     0
 90
        0
 40
-0.6
 41
-30.0
 62
     5
 63
     7
421
 16777215
 74
     1
 91
        4
 64
     7
 65
   257
 75
     1
175
     1
 42
1.0
 92
        8
 66
     7
 43
1.0
 76
     1
 77
     6
 78
     2
 67
     7
 79
     5
170
     0
171
     0
290
     0
174
     0
 93
        1
 44
0.0
173
     0
291
     1
 45
0.0
1001
ACAD
1000
AcDbSavedByObjectVersion
1070
     0
  0
VISUALSTYLE
  5
2F50
102
{ACAD_XDICTIONARY
360
7A7E
102
}
102
{ACAD_REACTORS
330
2F4F
102
}
330
2F4F
100
AcDbVisualStyle
  2
Flat
 70
     0
 71
     2
 72
     1
 73
     1
 90
        2
 40
-0.6
 41
30.0
 62
     5
 63
     7
421
 16777215
 74
     0
 91
        4
 64
     7
 65
   257
 75
     1
175
     1
 42
1.0
 92
        8
 66
     7
 43
1.0
 76
     1
 77
     6
 78
     2
 67
     7
 79
     5
170
     0
171
     0
290
     0
174
     0
 93
       13
 44
0.0
173
     0
291
     1
 45
0.0
1001
ACAD
1000
AcDbSavedByObjectVersion
1070
     0
  0
VISUALSTYLE
  5
2F51
102
{ACAD_XDICTIONARY
360
7A80
102
}
102
{ACAD_REACTORS
330
2F4F
102
}
330
2F4F
100
AcDbVisualStyle
  2
FlatWithEdges
 70
     1
 71
     2
 72
     1
 73
     1
 90
        2
 40
-0.6
 41
30.0
 62
     5
 63
     7
421
 16777215
 74
     1
 91
        4
 64
     7
 65
   257
 75
     1
175
     1
 42
1.0
 92
        0
 66
   257
 43
1.0
 76
     1
 77
     6
 78
     2
 67
     7
 79
     5
170
     0
171
     0
290
     0
174
     0
 93
       13
 44
0.0
173
     0
291
     1
 45
0.0
1001
ACAD
1000
AcDbSavedByObjectVersion
1070
     0
  0
VISUALSTYLE
  5
2F52
102
{ACAD_XDICTIONARY
360
7A82
102
}
102
{ACAD_REACTORS
330
2F4F
102
}
330
2F4F
100
AcDbVisualStyle
  2
Gouraud
 70
     2
 71
     2
 72
     2
 73
     1
 90
        2
 40
-0.6
 41
30.0
 62
     5
 63
     7
421
 16777215
 74
     0
 91
        4
 64
     7
 65
   257
 75
     1
175
     1
 42
1.0
 92
        0
 66
     7
 43
1.0
 76
     1
 77
     6
 78
     2
 67
     7
 79
     5
170
     0
171
     0
290
     0
174
     0
 93
       13
 44
0.0
173
     0
291
     1
 45
0.0
1001
ACAD
1000
AcDbSavedByObjectVersion
1070
     0
  0
VISUALSTYLE
  5
2F53
102
{ACAD_XDICTIONARY
360
7A84
102
}
102
{ACAD_REACTORS
330
2F4F
102
}
330
2F4F
100
AcDbVisualStyle
  2
GouraudWithEdges
 70
     3
 71
     2
 72
     2
 73
     1
 90
        2
 40
-0.6
 41
30.0
 62
     5
 63
     7
421
 16777215
 74
     1
 91
        4
 64
     7
 65
   257
 75
     1
175
     1
 42
1.0
 92
        0
 66
   257
 43
1.0
 76
     1
 77
     6
 78
     2
 67
     7
 79
     5
170
     0
171
     0
290
     0
174
     0
 93
       13
 44
0.0
173
     0
291
     1
 45
0.0
1001
ACAD
1000
AcDbSavedByObjectVersion
1070
     0
  0
VISUALSTYLE
  5
769B
102
{ACAD_XDICTIONARY
360
7AA2
102
}
102
{ACAD_REACTORS
330
2F4F
102
}
330
2F4F
100
AcDbVisualStyle
  2
Hidden
 70
     6
 71
     1
 72
     2
 73
     2
 90
        0
 40
-0.6
 41
-30.0
 62
     5
 63
     7
421
 16777215
 74
     2
 91
        2
 64
     7
 65
   257
 75
     2
175
     1
 42
40.0
 92
        0
 66
   257
 43
1.0
 76
     1
 77
     6
 78
     2
 67
     7
 79
     3
170
     0
171
     0
290
     0
174
     0
 93
        1
 44
0.0
173
     0
291
     0
 45
0.0
1001
ACAD
1000
AcDbSavedByObjectVersion
1070
     0
  0
VISUALSTYLE
  5
76A1
102
{ACAD_XDICTIONARY
360
7AAE
102
}
102
{ACAD_REACTORS
330
2F4F
102
}
330
2F4F
100
AcDbVisualStyle
  2
JitterOff
 70
    20
 71
     2
 72
     2
 73
     0
 90
        0
 40
-0.6
 41
-30.0
 62
     5
 63
     7
421
 16777215
 74
     1
 91
        4
 64
     7
 65
   257
 75
     1
175
     1
 42
1.0
 92
       10
 66
     7
 43
1.0
 76
     1
 77
     6
 78
     2
 67
     7
 79
     5
170
     0
171
     0
290
     0
174
     0
 93
        1
 44
0.0
173
     0
291
     1
 45
0.0
1001
ACAD
1000
AcDbSavedByObjectVersion
1070
     0
  0
VISUALSTYLE
  5
2F5D
102
{ACAD_XDICTIONARY
360
7A98
102
}
102
{ACAD_REACTORS
330
2F4F
102
}
330
2F4F
100
AcDbVisualStyle
  2
Linepattern
 70
    14
 71
     2
 72
     2
 73
     0
 90
        0
 40
-0.6
 41
-30.0
 62
     5
 63
     7
421
 16777215
 74
     1
 91
        4
 64
     7
 65
   257
 75
     7
175
     7
 42
1.0
 92
        8
 66
     7
 43
1.0
 76
     1
 77
     6
 78
     2
 67
     7
 79
     5
170
     0
171
     0
290
     0
174
     0
 93
        1
 44
0.0
173
     0
291
     1
 45
0.0
1001
ACAD
1000
AcDbSavedByObjectVersion
1070
     0
  0
VISUALSTYLE
  5
76A2
102
{ACAD_XDICTIONARY
360
7AB0
102
}
102
{ACAD_REACTORS
330
2F4F
102
}
330
2F4F
100
AcDbVisualStyle
  2
OverhangOff
 70
    21
 71
     2
 72
     2
 73
     0
 90
        0
 40
-0.6
 41
-30.0
 62
     5
 63
     7
421
 16777215
 74
     1
 91
        4
 64
     7
 65
   257
 75
     1
175
     1
 42
1.0
 92
        9
 66
     7
 43
1.0
 76
     1
 77
     6
 78
     2
 67
     7
 79
     5
170
     0
171
     0
290
     0
174
     0
 93
        1
 44
0.0
173
     0
291
     1
 45
0.0
1001
ACAD
1000
AcDbSavedByObjectVersion
1070
     0
  0
VISUALSTYLE
  5
2F59
102
{ACAD_XDICTIONARY
360
7A90
102
}
102
{ACAD_REACTORS
330
2F4F
102
}
330
2F4F
100
AcDbVisualStyle
  2
Realistic
 70
     8
 71
     2
 72
     2
 73
     0
 90
        0
 40
-0.6
 41
-30.0
 62
     5
 63
     7
421
 16777215
 74
     1
 91
        0
 64
     7
 65
   257
 75
     1
175
     1
 42
1.0
 92
        8
 66
     8
424
  7895160
 43
1.0
 76
     1
 77
     6
 78
     2
 67
     7
 79
     5
170
     0
171
     0
290
     0
174
     0
 93
       13
 44
0.0
173
     0
291
     0
 45
0.0
1001
ACAD
1000
AcDbSavedByObjectVersion
1070
     0
  0
VISUALSTYLE
  5
76A0
102
{ACAD_XDICTIONARY
360
7AAC
102
}
102
{ACAD_REACTORS
330
2F4F
102
}
330
2F4F
100
AcDbVisualStyle
  2
Shaded
 70
    27
 71
     2
 72
     2
 73
     1
 90
        2
 40
-0.6
 41
30.0
 62
     5
 63
     7
421
 16777215
 74
     0
 91
        4
 64
     7
 65
   257
 75
     1
175
     1
 42
1.0
 92
        8
 66
   257
 43
1.0
 76
     1
 77
     6
 78
     2
 67
     8
425
  7895160
 79
     3
170
     0
171
     0
290
     0
174
     0
 93
        5
 44
0.0
173
     0
291
     0
 45
0.0
1001
ACAD
1000
AcDbSavedByObjectVersion
1070
     0
  0
VISUALSTYLE
  5
769F
102
{ACAD_XDICTIONARY
360
7AAA
102
}
102
{ACAD_REACTORS
330
2F4F
102
}
330
2F4F
100
AcDbVisualStyle
  2
Shaded with edges
 70
    26
 71
     2
 72
     2
 73
     1
 90
        2
 40
-0.6
 41
30.0
 62
     5
 63
     7
421
 16777215
 74
     1
 91
       10
 64
     7
 65
   257
 75
     2
175
     1
 42
1.0
 92
        8
 66
   257
 43
1.0
 76
     1
 77
     6
 78
     2
 67
     7
 79
     3
170
     0
171
     0
290
     0
174
     0
 93
        5
 44
0.0
173
     0
291
     0
 45
0.0
1001
ACAD
1000
AcDbSavedByObjectVersion
1070
     0
  0
VISUALSTYLE
  5
769C
102
{ACAD_XDICTIONARY
360
7AA4
102
}
102
{ACAD_REACTORS
330
2F4F
102
}
330
2F4F
100
AcDbVisualStyle
  2
Shades of Gray
 70
    23
 71
     2
 72
     2
 73
     3
 90
        0
 40
-0.6
 41
-30.0
 62
     5
 63
     7
421
 16777215
 74
     2
 91
        2
 64
     7
 65
     7
 75
     1
175
     1
 42
40.0
 92
        8
 66
     7
 43
1.0
 76
     1
 77
     6
 78
     2
 67
     7
 79
     3
170
     0
171
     0
290
     0
174
     0
 93
        1
 44
0.0
173
     0
291
     0
 45
0.0
1001
ACAD
1000
AcDbSavedByObjectVersion
1070
     0
  0
VISUALSTYLE
  5
769D
102
{ACAD_XDICTIONARY
360
7AA6
102
}
102
{ACAD_REACTORS
330
2F4F
102
}
330
2F4F
100
AcDbVisualStyle
  2
Sketchy
 70
    24
 71
     1
 72
     2
 73
     2
 90
        0
 40
-0.6
 41
-30.0
 62
     5
 63
     7
421
 16777215
 74
     2
 91
        2
 64
     7
 65
     7
 75
     1
175
     1
 42
40.0
 92
       11
 66
     7
 43
1.0
 76
     1
 77
     6
 78
     2
 67
     7
 79
     6
170
     0
171
     0
290
     0
174
     0
 93
        1
 44
0.0
173
     0
291
     0
 45
0.0
1001
ACAD
1000
AcDbSavedByObjectVersion
1070
     0
  0
VISUALSTYLE
  5
2F5C
102
{ACAD_XDICTIONARY
360
7A96
102
}
102
{ACAD_REACTORS
330
2F4F
102
}
330
2F4F
100
AcDbVisualStyle
  2
Thicken
 70
    13
 71
     2
 72
     2
 73
     0
 90
        0
 40
-0.6
 41
-30.0
 62
     5
 63
     7
421
 16777215
 74
     1
 91
        4
 64
     7
 65
   257
 75
     1
175
     1
 42
1.0
 92
       12
 66
     7
 43
1.0
 76
     1
 77
     6
 78
     2
 67
     7
 79
     5
170
     0
171
     0
290
     0
174
     0
 93
        1
 44
0.0
173
     0
291
     1
 45
0.0
1001
ACAD
1000
AcDbSavedByObjectVersion
1070
     0
  0
VISUALSTYLE
  5
769A
102
{ACAD_XDICTIONARY
360
7AA0
102
}
102
{ACAD_REACTORS
330
2F4F
102
}
330
2F4F
100
AcDbVisualStyle
  2
Wireframe
 70
     5
 71
     0
 72
     2
 73
     0
 90
        0
 40
-0.6
 41
-30.0
 62
     5
 63
     7
421
 16777215
 74
     1
 91
        4
 64
     7
 65
   257
 75
     1
175
     1
 42
1.0
 92
        0
 66
   257
 43
1.0
 76
     1
 77
     6
 78
     2
 67
     7
 79
     3
170
     0
171
     0
290
     0
174
     0
 93
        1
 44
0.0
173
     0
291
     0
 45
0.0
1001
ACAD
1000
AcDbSavedByObjectVersion
1070
     0
  0
VISUALSTYLE
  5
769E
102
{ACAD_XDICTIONARY
360
7AA8
102
}
102
{ACAD_REACTORS
330
2F4F
102
}
330
2F4F
100
AcDbVisualStyle
  2
X-Ray
 70
    25
 71
     2
 72
     2
 73
     1
 90
        1
 40
0.5
 41
-30.0
 62
     5
 63
     7
421
 16777215
 74
     1
 91
        0
 64
     7
 65
   257
 75
     1
175
     1
 42
1.0
 92
        8
 66
     7
 43
1.0
 76
     1
 77
     6
 78
     2
 67
     7
 79
     3
170
     0
171
     0
290
     0
174
     0
 93
       13
 44
0.0
173
     0
291
     0
 45
0.0
1001
ACAD
1000
AcDbSavedByObjectVersion
1070
     0
  0
DICTIONARYVAR
  5
2FD3
102
{ACAD_REACTORS
330
599
102
}
330
599
100
DictionaryVariables
280
     0
  1
1:1
  0
DICTIONARYVAR
  5
2FD2
102
{ACAD_REACTORS
330
599
102
}
330
599
100
DictionaryVariables
280
     0
  1
STANDARD
  0
DICTIONARYVAR
  5
2FD1
102
{ACAD_REACTORS
330
599
102
}
330
599
100
DictionaryVariables
280
     0
  1
STANDARD
  0
DICTIONARYVAR
  5
7783
102
{ACAD_REACTORS
330
599
102
}
330
599
100
DictionaryVariables
280
     0
  1
Imperial24
  0
DICTIONARYVAR
  5
7784
102
{ACAD_REACTORS
330
599
102
}
330
599
100
DictionaryVariables
280
     0
  1
Imperial24
  0
DICTIONARYVAR
  5
59A
102
{ACAD_REACTORS
330
599
102
}
330
599
100
DictionaryVariables
280
     0
  1
2
  0
DICTIONARY
  5
7A7A
102
{ACAD_REACTORS
330
7A78
102
}
330
7A78
100
AcDbDictionary
281
     1
  0
DICTIONARY
  5
7A79
102
{ACAD_REACTORS
330
7A78
102
}
330
7A78
100
AcDbDictionary
281
     1
  3
140701722558000
350
7A73
  3
140701722558016
350
7A74
  3
140701722558032
350
7A75
  3
140701722558048
350
7A76
  3
140701722558064
350
7A77
  0
XRECORD
  5
598
102
{ACAD_REACTORS
330
596
102
}
330
596
100
AcDbXrecord
280
     1
330
0
330
0
330
0
  0
XRECORD
  5
2C67
102
{ACAD_REACTORS
330
2C66
102
}
330
2C66
100
AcDbXrecord
280
     1
  1
DIMENSION
  1
*DIM*
  1
*
  1
*
 70
     0
  1
*
  1
*
  0
XRECORD
  5
2C68
102
{ACAD_REACTORS
330
2C66
102
}
330
2C66
100
AcDbXrecord
280
     1
  1
HB_X
  1
HB_X*
  1
*
  1
*
 70
     0
  1
*
  1
*
  0
XRECORD
  5
35F7
102
{ACAD_XDICTIONARY
360
35F8
102
}
102
{ACAD_REACTORS
330
2FE7
102
}
330
2FE7
100
AcDbXrecord
280
     1
 91
     1023
301

290
     0
302
3
330
0
 90
        8
 62
     2
370
    -3
331
5
  1
Color_2
330
30A7
 90
        8
 62
     7
370
    -3
331
5
  1
Color_7
330
2FF8
 90
        8
 62
     7
370
    80
331
5
  1
Color_7
330
2FF6
 90
        8
 62
     2
370
    -3
331
5
  1
Color_2
330
2FEE
 90
        8
 62
     7
370
    -3
331
5
  1
Color_7
330
0
 90
        8
 62
     3
370
    -3
331
5
  1
Color_3
330
0
 90
        8
 62
     8
370
    -3
331
5
  1
Color_8
330
0
 90
        8
 62
     7
370
    -3
331
5
  1
Color_7
330
4
 90
        8
 62
     7
370
    -3
331
5
  1
Color_7
330
12
 90
        8
 62
     1
370
    -3
331
5
  1
Color_1
330
2F
 90
        0
 62
   210
370
    -3
331
5
  1
Color_210
330
24
 90
        8
 62
     7
370
    -3
331
5
  1
Color_7
  0
DICTIONARY
  5
2FEB
330
58F
100
AcDbDictionary
280
     1
281
     1
  3
ADSK_XREC_LAYOUTTHUMBNAIL
360
2FEC
  0
DICTIONARY
  5
2F40
330
2F3F
100
AcDbDictionary
280
     1
281
     1
  3
ACAD_XREC_ROUNDTRIP
360
7A7C
  3
BUMPTILE
360
2F42
  3
DIFFUSETILE
360
2F41
  3
OPACITYTILE
360
2F45
  3
REFLECTIONTILE
360
2F44
  3
REFRACTIONTILE
360
2F46
  3
SPECULARTILE
360
2F43
  0
DICTIONARY
  5
2F38
330
2F37
100
AcDbDictionary
280
     1
281
     1
  3
ACAD_XREC_ROUNDTRIP
360
7A7B
  3
BUMPTILE
360
2F3A
  3
DIFFUSETILE
360
2F39
  3
OPACITYTILE
360
2F3D
  3
REFLECTIONTILE
360
2F3C
  3
REFRACTIONTILE
360
2F3E
  3
SPECULARTILE
360
2F3B
  0
DICTIONARY
  5
2F48
330
2F47
100
AcDbDictionary
280
     1
281
     1
  3
ACAD_XREC_ROUNDTRIP
360
7A7D
  3
BUMPTILE
360
2F4A
  3
DIFFUSETILE
360
2F49
  3
OPACITYTILE
360
2F4D
  3
REFLECTIONTILE
360
2F4C
  3
REFRACTIONTILE
360
2F4E
  3
SPECULARTILE
360
2F4B
  0
DICTIONARY
  5
2FC0
330
2F62
100
AcDbDictionary
280
     1
281
     1
  3
ACAD_ROUNDTRIP_2008_TABLESTYLE_CELLSTYLEMAP
360
7A6E
  3
ACAD_XREC_ROUNDTRIP
360
7A9E
  0
DICTIONARY
  5
7A88
330
2F55
100
AcDbDictionary
280
     1
281
     1
  3
ACAD_XREC_ROUNDTRIP
360
7A89
  0
DICTIONARY
  5
7A8C
330
2F57
100
AcDbDictionary
280
     1
281
     1
  3
ACAD_XREC_ROUNDTRIP
360
7A8D
  0
DICTIONARY
  5
7A8A
330
2F56
100
AcDbDictionary
280
     1
281
     1
  3
ACAD_XREC_ROUNDTRIP
360
7A8B
  0
DICTIONARY
  5
7A86
330
2F54
100
AcDbDictionary
280
     1
281
     1
  3
ACAD_XREC_ROUNDTRIP
360
7A87
  0
DICTIONARY
  5
7A94
330
2F5B
100
AcDbDictionary
280
     1
281
     1
  3
ACAD_XREC_ROUNDTRIP
360
7A95
  0
DICTIONARY
  5
7A9C
330
2F5F
100
AcDbDictionary
280
     1
281
     1
  3
ACAD_XREC_ROUNDTRIP
360
7A9D
  0
DICTIONARY
  5
7A8E
330
2F58
100
AcDbDictionary
280
     1
281
     1
  3
ACAD_XREC_ROUNDTRIP
360
7A8F
  0
DICTIONARY
  5
7A92
330
2F5A
100
AcDbDictionary
280
     1
281
     1
  3
ACAD_XREC_ROUNDTRIP
360
7A93
  0
DICTIONARY
  5
7AB2
330
76A3
100
AcDbDictionary
280
     1
281
     1
  3
ACAD_XREC_ROUNDTRIP
360
7AB3
  0
DICTIONARY
  5
7A9A
330
2F5E
100
AcDbDictionary
280
     1
281
     1
  3
ACAD_XREC_ROUNDTRIP
360
7A9B
  0
DICTIONARY
  5
7A7E
330
2F50
100
AcDbDictionary
280
     1
281
     1
  3
ACAD_XREC_ROUNDTRIP
360
7A7F
  0
DICTIONARY
  5
7A80
330
2F51
100
AcDbDictionary
280
     1
281
     1
  3
ACAD_XREC_ROUNDTRIP
360
7A81
  0
DICTIONARY
  5
7A82
330
2F52
100
AcDbDictionary
280
     1
281
     1
  3
ACAD_XREC_ROUNDTRIP
360
7A83
  0
DICTIONARY
  5
7A84
330
2F53
100
AcDbDictionary
280
     1
281
     1
  3
ACAD_XREC_ROUNDTRIP
360
7A85
  0
DICTIONARY
  5
7AA2
330
769B
100
AcDbDictionary
280
     1
281
     1
  3
ACAD_XREC_ROUNDTRIP
360
7AA3
  0
DICTIONARY
  5
7AAE
330
76A1
100
AcDbDictionary
280
     1
281
     1
  3
ACAD_XREC_ROUNDTRIP
360
7AAF
  0
DICTIONARY
  5
7A98
330
2F5D
100
AcDbDictionary
280
     1
281
     1
  3
ACAD_XREC_ROUNDTRIP
360
7A99
  0
DICTIONARY
  5
7AB0
330
76A2
100
AcDbDictionary
280
     1
281
     1
  3
ACAD_XREC_ROUNDTRIP
360
7AB1
  0
DICTIONARY
  5
7A90
330
2F59
100
AcDbDictionary
280
     1
281
     1
  3
ACAD_XREC_ROUNDTRIP
360
7A91
  0
DICTIONARY
  5
7AAC
330
76A0
100
AcDbDictionary
280
     1
281
     1
  3
ACAD_XREC_ROUNDTRIP
360
7AAD
  0
DICTIONARY
  5
7AAA
330
769F
100
AcDbDictionary
280
     1
281
     1
  3
ACAD_XREC_ROUNDTRIP
360
7AAB
  0
DICTIONARY
  5
7AA4
330
769C
100
AcDbDictionary
280
     1
281
     1
  3
ACAD_XREC_ROUNDTRIP
360
7AA5
  0
DICTIONARY
  5
7AA6
330
769D
100
AcDbDictionary
280
     1
281
     1
  3
ACAD_XREC_ROUNDTRIP
360
7AA7
  0
DICTIONARY
  5
7A96
330
2F5C
100
AcDbDictionary
280
     1
281
     1
  3
ACAD_XREC_ROUNDTRIP
360
7A97
  0
DICTIONARY
  5
7AA0
330
769A
100
AcDbDictionary
280
     1
281
     1
  3
ACAD_XREC_ROUNDTRIP
360
7AA1
  0
DICTIONARY
  5
7AA8
330
769E
100
AcDbDictionary
280
     1
281
     1
  3
ACAD_XREC_ROUNDTRIP
360
7AA9
  0
XRECORD
  5
7A73
102
{ACAD_REACTORS
330
7A79
102
}
330
7A79
100
AcDbXrecord
280
     1
  1
AcDb_Thumbnail_Schema
102
{ATTRRECORD
341
7A74
  2
AcDbDs::TreatedAsObjectData
280
     1
291
     1
102
ATTRRECORD}
102
{ATTRRECORD
341
7A75
  2
AcDbDs::Legacy
280
     1
291
     1
102
ATTRRECORD}
  2
AcDbDs::ID
280
    10
 91
        8
102
{ATTRRECORD
341
7A76
  2
AcDs:Indexable
280
     1
291
     1
102
ATTRRECORD}
102
{ATTRRECORD
341
7A77
  2
AcDbDs::HandleAttribute
280
     7
282
     1
102
ATTRRECORD}
  2
Thumbnail_Data
280
    15
 91
        0
  0
XRECORD
  5
7A74
102
{ACAD_REACTORS
330
7A79
102
}
330
7A79
100
AcDbXrecord
280
     1
  1
AcDbDs::TreatedAsObjectDataSchema
  2
AcDbDs::TreatedAsObjectData
280
     1
 91
        0
  0
XRECORD
  5
7A75
102
{ACAD_REACTORS
330
7A79
102
}
330
7A79
100
AcDbXrecord
280
     1
  1
AcDbDs::LegacySchema
  2
AcDbDs::Legacy
280
     1
 91
        0
  0
XRECORD
  5
7A76
102
{ACAD_REACTORS
330
7A79
102
}
330
7A79
100
AcDbXrecord
280
     1
  1
AcDbDs::IndexedPropertySchema
  2
AcDs:Indexable
280
     1
 91
        0
  0
XRECORD
  5
7A77
102
{ACAD_REACTORS
330
7A79
102
}
330
7A79
100
AcDbXrecord
280
     1
  1
AcDbDs::HandleAttributeSchema
  2
AcDbDs::HandleAttribute
280
     7
 91
        1
284
     1
  0
DICTIONARY
  5
35F8
330
35F7
100
AcDbDictionary
280
     1
281
     1
  3
AcadLayerStateAnnoScale
360
35F9
  0
XRECORD
  5
2FEC
102
{ACAD_REACTORS
330
2FEB
102
}
330
2FEB
100
AcDbXrecord
280
     1
310
28000000680000008C0000000100080000000000E0380000010000000100000000010000000000004C00390000000000C8C8C8FF000000FF000000FF000000FF000000FF000000FF000000FF000000FF000000FF330000FF660000FF990000FFCC0000FFFF0000FF003300FF333300FF663300FF993300FFCC3300FFFF3300
310
FF006600FF336600FF666600FF996600FFCC6600FFFF6600FF009900FF339900FF669900FF999900FFCC9900FFFF9900FF00CC00FF33CC00FF66CC00FF99CC00FFCCCC00FFFFCC00FF00FF00FF33FF00FF66FF00FF99FF00FFCCFF00FFFFFF00FF000033FF330033FF660033FF990033FFCC0033FFFF0033FF003333FF3333
310
33FF663333FF993333FFCC3333FFFF3333FF006633FF336633FF666633FF996633FFCC6633FFFF6633FF009933FF339933FF669933FF999933FFCC9933FFFF9933FF00CC33FF33CC33FF66CC33FF99CC33FFCCCC33FFFFCC33FF00FF33FF33FF33FF66FF33FF99FF33FFCCFF33FFFFFF33FF000066FF330066FF660066FF99
310
0066FFCC0066FFFF0066FF003366FF333366FF663366FF993366FFCC3366FFFF3366FF006666FF336666FF666666FF996666FFCC6666FFFF6666FF009966FF339966FF669966FF999966FFCC9966FFFF9966FF00CC66FF33CC66FF66CC66FF99CC66FFCCCC66FFFFCC66FF00FF66FF33FF66FF66FF66FF99FF66FFCCFF66FF
310
FFFF66FF000099FF330099FF660099FF990099FFCC0099FFFF0099FF003399FF333399FF663399FF993399FFCC3399FFFF3399FF006699FF336699FF666699FF996699FFCC6699FFFF6699FF009999FF339999FF669999FF999999FFCC9999FFFF9999FF00CC99FF33CC99FF66CC99FF99CC99FFCCCC99FFFFCC99FF00FF99
310
FF33FF99FF66FF99FF99FF99FFCCFF99FFFFFF99FF0000CCFF3300CCFF6600CCFF9900CCFFCC00CCFFFF00CCFF0033CCFF3333CCFF6633CCFF9933CCFFCC33CCFFFF33CCFF0066CCFF3366CCFF6666CCFF9966CCFFCC66CCFFFF66CCFF0099CCFF3399CCFF6699CCFF9999CCFFCC99CCFFFF99CCFF00CCCCFF33CCCCFF66CC
310
CCFF99CCCCFFCCCCCCFFFFCCCCFF00FFCCFF33FFCCFF66FFCCFF99FFCCFFCCFFCCFFFFFFCCFF0000FFFF3300FFFF6600FFFF9900FFFFCC00FFFFFF00FFFF0033FFFF3333FFFF6633FFFF9933FFFFCC33FFFFFF33FFFF0066FFFF3366FFFF6666FFFF9966FFFFCC66FFFFFF66FFFF0099FFFF3399FFFF6699FFFF9999FFFFCC
310
99FFFFFF99FFFF00CCFFFF33CCFFFF66CCFFFF99CCFFFFCCCCFFFFFFCCFFFF00FFFFFF33FFFFFF66FFFFFF99FFFFFFCCFFFFFFFFFFFFFF000000FF0D0D0DFF1A1A1AFF282828FF353535FF434343FF505050FF5D5D5DFF6B6B6BFF787878FF868686FF939393FFA1A1A1FFAEAEAEFFBBBBBBFFC9C9C9FFD6D6D6FFE4E4E4FF
310
F1F1F1FFFFFFFFFF000000FF000000FF000000FF000000FF000000FF000000FF000000FF000000FF000000FF000000FF00000000000000000000000000000000000000000000000000000000000000000000000000000000000000000000000000000000000000000000000000000000000000000000000000000000000000
310
00000000000000000000000000000000000000000000000000000000000000000000000000000000000000000000000000000000000000000000000000000000000000000000000000000000000000000000000000000000000000000000000000000000000000000000000000000000000000000000000000000000000000
310
00000000000000000000000000000000000000000000000000000000000000000000000000000000000000000000000000000000000000000000000000000000000000000000000000000000000000000000000000000000000000000000000000000000000000000000000000000000000000000000000000000000000000
310
00000000000000000000000000000000000000000000000000000000000000000000000000000000000000000000000000000000000000000000000000000000000000000000000000000000000000000000000000000000000000000000000000000000000000000000000000000000000000000000000000000000000000
310
00000000000000000000000000000000000000000000000000000000000000000000000000000000000000000000000000000000000000000000000000000000000000000000000000000000000000000000000000000000000000000000000000000000000000000000000000000000000000000000000000000000000000
310
00000000000000000000000000000000000000000000000000000000000000000000000000000000000000F5F5F5F5F5F5F5F5F5F5F5F5F5F5F5F5F5F5F5F5F5F5F5F5F5F5F5F5F5F5F5F5F5F5F5F5F5F5F5F5F5F5F5F5F5F5F5F5F5F5F5F5F5F5F5F5F5F5F5F5F5F5F5F5F5F5F5F5F5F5F5F5F5F5F5F5F5F5F5F5F5F5F5F5
310
F5F5F5F5F5F50000000000000000000000000000F5F5F5F5F5F5F5F5F5F5F5F5F5F5F5F5F5F5F5F5F5F5F5F5F5F5F5F5F5F5F5F5F5F5F5F5F5F5F5F5F5F5F5F5F5F5F5F5F5F5F5F5F5F5F5F5F5F5F5F5F5F5F5F5F5F5F5F5F5F5F5F5F5F5F5F5F5F5F5F5F5F5F5F5F5F5F5F5F5F50000000000000000000000000000F5F500
310
000000000000000000000000000000000000000000F5F5F5F5F5F5F5F5F5F5F5F5F5F5F5F5F5F5F5F5F5F5F5F5F5F5F5F5F5F5F5F5F5F5F5F5F5F5F5F5F5F5F5F5F5F5F5F5F5F5F5F5F5F5F5F5F5F5F5F5F5F5F5F5F5F5F500000000000000000000000000F5F500000000000000000000000000000000000000000000F5F5
310
F5F5F5F5F5F5F5F5F5F5F5F5F5F5F5F5F5F5F5F5F5F5F5F5F5F5F5F5F5F5F5F5F5F5F5F5F5F5F5F5F5F5F5F5F5F5F5F5F5F5F5F5F5F5F5F5F5F5F5F5F5F5F5F50000000000000000000000000000F5F500000000000000000000000000000000000000000000F5F5F5F5F50000F5F5F5F5F5F5F5F5F5F5F50000000000F5F5
310
F5F5F5F500F5F5F5F5F50000000000000000F5F5F5F5F5F5F5F500F5F5F5F5F5F5000000000000F5F50000000000000000000000000000F5F500000000000000000000000000000000000000000000F5F5F5F5F50000F5F5F5F5F5F5F5F5F5F5F50000000000F5F5F5F5F5F50000000000000000000000000000F5F5F5F5F5
310
F5F5F500F5F5F5F5F5F5000000000000F5F50000000000000000000000000000F5F500000000000000000000000000000000000000000000F5F5000000000000000000000000000000000000000000F5F5000000000000000000000000000000000000F5F500000000000000000000000000000000000000F5F50000000000
310
000000000000000000F5F500000000000000000000000000000000000000000000F5F5F5F5F5F5F5F5F5F5F5F5F5F5F5F5F5F5F5F5F5F5F5F5F5F5F5F5F5F5F5F5F5F5F5F5F5F5F5F5F5F5F5F5F5F5F5F5F5F5F5F5F5F5F5F5F5F5F5F5F5F5F5F5F5F5F500000000000000000000000000F5F5F5F5F5F5F5F5F5F5F5F5F5F5
310
F5F5F5F5F5F5F5F5F5F5F5F5F5F5F5F5F5F5F5F5F5F5F5F5F5F5F5F5F5F5F5F5F5F5F5F5F5F5F5F5F5F5F5F5F5F5F5F5F5F5F5F5F5F5F5F5F5F5F5F5F5F5F5F5F5F5F5F5F5F5F5F5F5F5F5F50000000000000000000000000000F5F5F5F5F5F5F5F5F5F5F5F5F5F5F5F5F5F5F5F5F5F5F5F5F5F50000000000000000000000
310
000000000000000000000000000000000000000000000000000000000000000000000000000000000000000000000000000000F5F50000000000000000000000000000F5F5F4E1E1F4C5E1C49BE1E1F4C5E19BC4E1E1E1E1F4BFE1F5F5F5F5F500000000F5F5F5F5F5F5F5F5F5F5F5F5F5F5F5F5F5F5F5F5F5F5F5F5F5F5F5
310
F5F5F5F5F5F5F5F5F5F5F5F5F5F5F5F5F5F5F5F5F5F5F5F5F5F50000F5F50000000000000000000000000000F5F5BFA1F4E19BE1F4C5F4E1E1F4E1E1E19BC4E1BFE1A1F4F5F5F5F5F500000000F5F5F5F5F5F5F5F5F5F5F5F5F5F5F5F5F5F5F5F5F5F5F5F5F5F5F5F5F5F5F5F5F5F5F5F5F5F5F5F5F5F5F5F5F5F5F5F5F5F5
310
F5F5F50000F5F50000000000000000000000000000F5F5E1E1A0C5BFA0C5BEC59BC4C5BFA0C5BEC59BC4E1C59AF5F500000000000000F5F5F5F5F5F5F5F5F5F5F5F5F5F5F5F5F5F5F5F5F5F5F5F5F5F5F5F5F5F5F5F5F5F5F5F5F5F5F5F5F5F5F5F5F5F5F5F5F5F5F5F5F50000F5F50000000000000000000000000000F5F5
310
F5F5F5F5F5F5F5F5F5F5F5F5F5F5F5F5F5F5F5F5F5F5F5F5F5F5F5F5F5F5F5F5F5F5F5F5F5F5F5F5F5F5F5F5F5F5F5F5F5F5F5F5F5F5F5F5F5F5F5F5F5F5F5F5F5F5F5F5F5F5F5F5F5F5F5F5F5F5F5F5F5F5F5F5F5F5F5F50000000000000000000000000000F5F5F5F5F5F5F5F5F5F5F5F5F5F5F5F5F5F5F5F5F5F5F5F5F5
310
F5F5F5F5F5F5F5F5F5F5F5F5F5F5F5F5F5F5F5F5F5F5F5F5F5F5F5F5F5F5F5F5F5F5F5F5F5F5F5F5F5F5F5F5F5F5F5F5F5F5F5F5F5F5F5F5F5F5F5F5F5F5F5F5F50000000000000000000000000000F5F500000000000000000000000000000000000000000000000000000000000000000000000000000000000000000000
310
00000000000000000000000000000000000000000000000000000000000000000000000000000000F5F50000000000000000000000000000F5F5000000000000000000000000000000000000000000000000000000000000000000000000000000000000000000000000000000000000000000000000000000000000000000
310
0000000000000000000000000000000000F5F50000000000000000000000000000F5F50000000000000000000000000000000000000000000000000000000000000000000000000000000000000000000000000000000000000000000000000000000000000000000000000000000000000000000000000000F5F500000000
310
00000000000000000000F5F50000000000000000000000000000000000000000000000000000000000000000000000000000000000000000000000000000000000000000000000000000000000000000000000000000000000000000000000000000F5F50000000000000000000000000000F5F50000000000000000000000
310
000000000000000000000000000000000000000000000000000000000000000000000000000000000000000000000000000000000000000000000000000000000000000000000000000000F5F50000000000000000000000000000F5F5C3C3C3C3C3C3C3C3C3C3C3C3C3C3C3C3C3C3C3C3C3C3C3C3C3C3C3C3C3C3C3C3C3C3
310
C3C3C3C3C3C3C3C3C3C3C3C3C3C3C3C3C3C3C3C3C3C3C3C3C3C3C3C3C3C3C3C3C3C3C3C3C3C3C3C3C3C3C3C3C3C3C3C3C3C3C3C3F5F50000000000000000000000000000F5F5000000000000000000000000000000000000000000000000000000000000000000000000000000000000000000000000000000000000000000
310
0000000000000000000000000000000000000000000000000000000000F5F50000000000000000000000000000F5F50000000000000000000000000000000000000000000000000000000000000000000000000000000000000000000000000000000000000000000000000000000000000000000000000000000000000000
310
000000000000F5F50000000000000000000000000000F5F50000000000000000000000000000000000000000000000000000000000000000000000000000000000000000000000000000000000000000000000000000000000000000000000000000000000000000000000000000F5F50000000000000000000000000000F5
310
F50000000000000000000000000000000000000000000000000000000000000000000000000000000000000000000000000000000000000000000000000000000000000000000000000000000000000000000000000000F5F50000000000000000000000000000F5F500000000000000000000000000000000000000000000
310
00000000000000000000000000000000000000000000000000000000000000000000000000000000000000000000000000000000000000000000000000000000F5F50000000000000000000000000000F5F5000000000000000000000000000000000000000000000000000000000000000000000000000000000000000000
310
0000000000000000000000000000000000000000000000000000000000000000000000000000000000F5F50000000000000000000000000000F5F50000000000000000000000000000000000000000000000000000000000000000000000000000000000000000000000000000000000000000000000000000000000000000
310
000000000000000000000000000000000000F5F50000000000000000000000000000F5F50000000000000000000000000000000000000000000000000000000000000000000000000000000000000000000000000000000000000000000000000000000000000000000000000000000000000000000000000000F5F5000000
310
0000000000000000000000F5F50000000000000000000000000000000000000000000000000000000000000000000000000000000000000000000000000000000000000000000000000000000000000000000000000000000000000000000000000000F5F50000000000000000000000000000F5F500000000000000000000
310
00000000000000000000000000000000000000000000000000000000000000000000000000000000000000000000000000000000000000000000000000000000000000000000000000000000F5F50000000000000000000000000000F5F5000000000000000000000000000000000000000000000000000000000000000000
310
0000000000000000000000000000000000000000000000000000000000000000000000000000000000000000000000000000000000F5F50000000000000000000000000000F5F50000000000000000000000000000000000000000000000000000000000000000000000000000000000000000000000000000000000000000
310
000000000000000000000000000000000000000000000000000000000000F5F50000000000000000000000000000F5F500000000000000000000000000000000000000000000000000000000000000000000000000000000000000000000000000000000000000000000000000000000000000000000000000000000000000
310
00000000000000F5F50000000000000000000000000000F5F50000000000000000000000000000000000000000000000000000000000000000000000000000000000000000000000000000000000000000000000000000000000000000000000000000000000000000000000000000F5F50000000000000000000000000000
310
F5F50000000000000000000000000000000000000000000000000000000000000000000000000000000000000000000000000000000000000000000000000000000000000000000000000000000000000000000000000000F5F50000000000000000000000000000F5F5000000000000000000000000000000000000000000
310
0000000000000000000000000000000000000000000000000000000000000000000000000000000000000000000000000000000000000000000000000000000000F5F50000000000000000000000000000F5F50000000000000000000000000000000000000000000000000000000000000000000000000000000000000000
310
000000000000000000000000000000000000000000000000000000000000000000000000000000000000F5F50000000000000000000000000000F5F500000000000000000000000000000000000000000000000000000000000000000000000000000000000000000000000000000000000000000000000000000000000000
310
00000000000000000000000000000000000000F5F50000000000000000000000000000F5F50000000000000000000000000000000000000000000000000000000000000000000000000000000000000000000000000000000000000000000000000000000000000000000000000000000000000000000000000000F5F50000
310
000000000000000000000000F5F50000000000000000000000000000000000000000000000000000000000000000000000000000000000000000000000000000000000000000000000000000000000000000000000000000000000000000000000000000F5F50000000000000000000000000000F5F5000000000000000000
310
0000000000000000000000000000F50000000000F500000000F5000000000000000000000000000000000000000000000000000000000000000000000000000000000000000000000000000000F5F50000000000000000000000000000F5F500000000000000000000000000000000000000F5F5F5F5F5F5F5F5F5F5F5F5F5
310
F5F5F5F5F5F5F5F5F5000000000000000000000000000000000000000000000000000000000000000000000000000000000000000000F5F50000000000000000000000000000F5F500000000000000000000000000000000000000000000DCDCDCDCDCDCDCDCDCDCDCDCDCDCDC006666000000000000000000000000000000
310
00000000000000000000000000000000000000000000000000000000000000F5F50000000000000000000000000000F5F500000000000000000000000000000000000000000000DCDCDCDCDCDCDCDCDCDCDCDCDCDCDC0066660000000000000000000000000000000000000000000000000000000000000000000000000000
310
0000000000000000F5F50000000000000000000000000000F5F500000000000000000000000000000000000000000000DCDCDCDCDCDCDCDCDCDCDCDCDCDCDC0066660000000000000000F5F5F5F5F5F5F5F5F5F5F5F5F5F5F5F5F5000000000000000000000000000000000000000000F5F500000000000000000000000000
310
00F5F500000000000000000000000000000000000000000000DCDCDCDCDCDCDCDCDCDCDCDCDCDCDC0066660000000000000000F5F5F5F5F5F5F5F5F5F5F5F5F5F5F5F5F5000000000000000000000000000000000000000000F5F50000000000000000000000000000F5F50000000000000000000000000000000000000000
310
0000DCDCDCDCDCDCDCDCDCDCDCDCDCDCDC0066660000000000000000F5F5F5F5F5F5F5F5F5F5F5F5F5F5F50000000000000000000000000000000000000000000000F5F50000000000000000000000000000F5F500000000000000000000000000000000000000000000DCDCDCDCDCDCDCDCDCDCDCDCDCDCDC006666000000
310
0000000000F5F5F5F5F5F5F5F5F5F5F5F5F5F5F50000000000000000000000000000000000000000000000F5F50000000000000000000000000000F5F500000000000000000000000000000000000000000000DCDCDCDCDCDCDCDCDCDCDCDCDCDCDC0066660000000000000000F5F5F5F5F5F5F5F5F5F5F5F5F5F5F5F50000
310
0000000000000000000000000000000000000000F5F50000000000000000000000000000F5F500000000000000000000000000000000000000000000DCDCDCDCDCDCDCDCDCDCDCDCDCDCDC0066660000000000000000F5F5F5F5F5F5F5F5F5F5F5F5F5F5F5F500000000000000000000000000000000000000000000F5F500
310
00000000000000000000000000F5F500000000000000000000000000000000000000000000DCDCDCDCDCDCDCDCDCDCDCDCDCDCDC0066660000000000000000F5F5F5F5F5F5F5F5F5F5F5F5F500000000000000000000000000000000000000000000000000F5F50000000000000000000000000000F5F50000000000000000
310
0000000000000000000000000000DCDCDCDCDCDCDCDCDCDCDCDCDCDCDC006666000000F5F5F5F5F5F5F5F5F5F5F5F5F5F5F5F5F5F500000000000000000000000000000000000000000000000000F5F50000000000000000000000000000F5F500000000000000000000000000000000000000000000DCDCDCDCDCDCDCDCDC
310
DCDCDCDCDCDC006666F5F5F500000000000000000000000000000000000000000000000000000000000000000000000000000000000000F5F50000000000000000000000000000F5F5000000000000F5F5F5F5F5F5F5F5F5F5000000000000DCDCDCDCDCDCDCDCDCDCDCDCDCDCDC0066F5F500000000000000000000000000
310
0000000000000000000000000000000000000000000000000000000000000000F5F50000000000000000000000000000F5F5000000000000F5F5F5F5F5F5F5F5F5F5000000000000DCDCDCDCDCDCDCDCDCDCDCDCDCDCDC00F5F500000000000000000000000000000000000000000000000000000000000000000000000000
310
000000000000000000F5F50000000000000000000000000000F5F500000000F5F5F5F5F5F5F5F5F5F5F5F5000000000000DCDCDCDCDCDCDCDCDCDCDCDCDCDCDCF5F56600000000000000000000000000000000000000000000000000000000000000000000000000000000000000000000F5F5000000000000000000000000
310
0000F5F500000000F5F5F5F5F5F5F5F5F5F5F5F500F5F5F5F5F5DCDCDCDCDCDCDCDCDCDCDCDCDCDCD8F5DC660000000000000000F5F5F5F5F5F5F5F5000000000000000000000000000000000000000000000000000000000000F5F50000000000000000000000000000F5F500000000000000000000000000000000000000
310
0000F5F5F5F5DCDCDCDCDCDCDCDCDCDCDCD8F5D8660000000000F5F5F5F5F5F5F5F5F5F5F5000000000000000000000000000000000000000000000000000000000000F5F50000000000000000000000000000F5F500000000000000000000000000000000000000000000DCDCF5F5F5DCDC28DCDCDCDCDCDCD8F5DC660000
310
0000F5F500000000000000000000000000000000000000000000000000000000000000000000000000000000F5F50000000000000000000000000000F5F50000000000000000000000F5F5F5F5F5000000000000DCDCDCDCF5F5F52828DCDCDCDCDCDCF5DC6666666666F56666666666666666666666666666666666666666
310
666666000000000000000000000000000000000000F5F50000000000000000000000000000F5F50000000000000000000000F5F5F5F5F5000000000000DCDCDCDCDCDCF5F528DCDCDCDCDCDCF5BEBEBEBEBEBEF5BEBEBEBEBEBEBEBEBEBEBEBEBEBEBEBEBEBEBEBEBEBEBE000000000000000000000000000000000000F5F5
310
0000000000000000000000000000F5F500F5F5F5F5F5F5F5F5F5F5F5F5F5F5F500F5F5F5F5F5DCDCDCDCDCDCDCF5F5DCDCDCDCDCDC2DDCDCDCDCDCDCF5F5DCF5F5F5F5F5DCDCDCDCDCDCDCDCDCDCDCDCDCDCDCF5000000000000000000000000000000000000F5F50000000000000000000000000000F5F500F5F5F5F5F5F5
310
F5F5F5F5F5F5F5F5F500F5F5F50000DCDCDCDCDCDCDC2828F5F5DCDCDCDC2DDCDCDCDCDCDCDCF5DCDCF5F5F5F5DCDCDCDCDCDCDCDCDCDCDCDCDCDCDCDC000000000000000000000000000000000000F5F50000000000000000000000000000F5F500F5F5F5F5F5F5F5F5F5F5F5F5F5F5F500F5F5F50000DCDCDCDCDCDCDC28
310
28DCF5DCDCDC2D2DDCDCDCDCDCDCDCF5DCDCF5F5F5F5DCDCDCDCDCDCDCDCDCDCDCDCDCDCDCF5000000000000000000000000000000000000F5F50000000000000000000000000000F5F500F5F5F5F5F5F5F5F5F5F5F5F5F5F5F500F500000000DCDCDCDCDCDCDC2828DCDCF5F5DCDCBEDCDCDCDCDCDCDCF5DCDC000000F5DC
310
DCDCDCDCDCDCDCDCDCDCDCDCDCDCF5000000000000000000000000000000000000F5F50000000000000000000000000000F5F500000000F5F5F5F5F5F5F5F5F5F5F5F5000000000000DCDCDCDCDCDCDC2828DCDCDCDCF5F5BEDCDCDCDCDCDCDCF5DCDC000000DCDCDCDCDCDCDCDCDCDCDCDCDCDCDCDCF50000000000000000
310
00000000000000000000F5F50000000000000000000000000000F5F500000000F5F5F5F5F5F5F5F5F5F5F5F500F5F5F5F500DCDCDCDCDCDCDC2828DCDCDCDCDCF5F5DCDCDCDCDCDCDCDCDCDCDCDCDCDCDCDCDCDCDCDCDCDCDCDCDCDCDCDCDCF5000000000000000000000000000000000000F5F50000000000000000000000
310
000000F5F50000000000000000000000000000000000000000F5F5DCDCDCDCDCDCDC2828DCDCDCDCDCDCBEC3C3C3C3C3C3C3C3C3C3C3C3C3C3C3C3C3C3C3C3C3C3C3C3C3C3C3C3C3F5000000000000000000000000000000000000F5F50000000000000000000000000000F5F5000000000000000000000000000000000000
310
000000F5F52D2DDCBEDCDC2828DCBEDCDCDCDC00C3C3C3C3C3C3C3C3C3C3C3C3C3C3C3C3C3C3C3C3C3C3C3C3C3C3C3C3C3F5000000000000000000000000000000000000F5F50000000000000000000000000000F5F5000000000000000000000000000000000000000000002DF52DBEBEBEBE2828BEBEDCDCDCDCC3C3C3C3
310
C3C3C3C3C3C3C3C3C3C3C3C3C3C3C3C3C3C3C3C3C3C3C3C3C3C3C3000000000000000000000000000000000000F5F50000000000000000000000000000F5F50000000000F5F5F5F5F5F5F5F5F5F5F5000000000000DCDCDCDCDCBEBE2828BEDCDCDCDCDCC3C3C3C3C3C3C3C3C3C3C3C3C3C3C3C3C3C3C3C3C3C3C3C3C3C3C3
310
C3C3C3BE000000000000000000000000000000000000F5F50000000000000000000000000000F5F50000000000F5F5F5F5F5F5F5F5F5F5F5000000000000DCDCDCDCDCDCDC2828DCDCDCDCDCDCBEDCDCDCDCDCDCDCDCDCDCDCDCDCDCDCDCDCDCDCDCDCDCDCDCDCDCDCDCDCF5000000000000000000000000000000000000F5
310
F50000000000000000000000000000F5F500000000000000000000000000000000000000000000DCDCDCDCDCDCDC2828DCDCDCDCDCDCBEDCDCDCDCDCDCDCDCDCDCDCDCDCDCDCDCDCDCDCDCDCDCDCDCDCDCDCDCDCF5000000000000000000000000000000000000F5F50000000000000000000000000000F5F5000000000000
310
00000000000000000000000000000000DCDCDCDCDCDCDC2828DCDCDCDCDCDCBEDCDCDCDCDCDCDCDCDCDCDCDCDCDCDCDCDCDCDCDCDCDCDCDCDCDCDCDCDCF5000000000000000000000000000000000000F5F50000000000000000000000000000F5F500000000000000000000000000000000000000000000DCDCDCDCDCDCDC
310
F528DCDCDCDCDCDCBEDCDCDCDCDCDCDCDCDCDCDCDCDCDCDCDCDCDCDCDCDCDCDCDCDCDCDCDCDCF5000000000000000000000000000000000000F5F50000000000000000000000000000F5F5000000F5F5F5F5F5F5F5F5F5F5F5F5F5000000000000DCDCDCDCDCF5F52828DCDCDCDCDC2D2DDCDCDCDCDCDCDCDCDCDCDCDCDCDC
310
DCDCDCDCDCDCDCDCDCDCDCDCDCDCDCF5000000000000000000000000000000000000F5F50000000000000000000000000000F5F5000000F5F5F5F5F5F5F5F5F5F5F5F5F5000000000000DCDCDCDCF5F5DC2828DCDCDCDCDCDC2DDCDCDCDCDCDCDCDCDCDCDCDCDCDCDCDCDCDCDCDCDCDCDCDCDCDCDCDCDCDC00000000000000
310
0000000000000000000000F5F50000000000000000000000000000F5F5F5F5F5F5F5F5F5F5F5F5F5F5F5F5F5F5000000000000DCDCDCF5F5DCDC2828DCDCDCDCDCDC66BEBEBEBEBEBEBEBEBEBEBEBEBEBEBEBEBEBEBEBEBEBEBEBEBEBEBEBEBEBE000000000000000000000000000000000000F5F500000000000000000000
310
00000000F5F5F5F5F5F5F5F5F5F5F5F5F5F5F5F5F5F5000000000000DCF5F5F5DCDCDCDC28DCDCDCDCDCDCF5DC6666666666666666666666666666666666666666666666666666666666000000000000000000000000000000000000F5F50000000000000000000000000000F5F5F5F5F5F5F5F5F5F5F5F5F5F5F5F5F5F500
310
F5F5F5F5F5F5F5DCDCDCDCDCDCDCDCDCDCDCDCDC00F566000000000000000000000000000000000000000000000000000000F5000000000000000000000000000000000000F5F50000000000000000000000000000F5F500000000000000000000000000000000000000000000DCDCDCDCDCDCDCDCDCDCDCDCDCDCD8DCF566
310
00000000000000000000000000000000000000000000000000000000000000000000000000000000000000000000F5F50000000000000000000000000000F5F500000000000000000000000000000000000000000000DCDCDCDCDCDCDCDCDCDCDCDCDCDCD8DCD8F50000000000000000F5F5F5F5F5F5F5F5F5000000000000
310
0000000000000000000000000000000000000000000000F5F50000000000000000000000000000F5F5000000000000000000000000F5F5F5F5000000000000DCDCDCDCDCDCDCDCDCDCDCDCDCDCDC00DCF50000000000000000F5F5F5F5F5F5F5F5F50000000000000000000000000000000000000000000000000000000000
310
F5F50000000000000000000000000000F5F5000000000000000000000000F5F5F5F5000000000000DCDCDCDCDCDCDCDCDCDCDCDCDCDCDCD8DC66F500000000000000F5F5F5F5F5F5F5F5F5F5F5F50000000000000000000000000000000000000000000000000000F5F50000000000000000000000000000F5F50000F5F5F5
310
F5F5F5F5F5F5F5F5F5F5F5F50000000000DCDCDCDCDCDCDCDCDCDCDCDCDCDCDC006666F500000000000000F5F5F5F5F5F5F5F5F5F5F5F50000000000000000000000000000000000000000000000000000F5F50000000000000000000000000000F5F50000F5F5F5F5F5F5F5F5F5F5F5F5F5F5F5F5F5F5F5F5DCDCDCDCDCDC
310
DCDCDCDCDCDCDCDCDC006666F5F5000000000000F5F5F5F5F5F5F5F5F5F5F5F5F5F5F5F5F5F50000000000000000000000000000000000000000F5F50000000000000000000000000000F5F5000000000000000000000000000000000000000000F5F5F5F5DCDCDCDCDCDCDCDCDCDCDCDC00666600F5000000000000F5F5F5
310
F5F5F5F5F5F5F5F5F5F5F5F5F5F5F50000000000000000000000000000000000000000F5F50000000000000000000000000000F5F500000000000000000000000000000000000000000000DCDCF5F5F5DCDCDCDCDCDCDCDCDCDC0066660000F50000000000F5F5F5F5F5F5F5F5F5F5F5F5F5F5000000000000000000000000
310
000000000000000000000000F5F50000000000000000000000000000F5F50000000000000000000000000000000000000000000066DCDCDCF5F5F5DCDCDCDCDCDCDCDC0066660000F5F500000000F5F5F5F5F5F5F5F5F5F5F5F5F5F5000000000000000000000000000000000000000000000000F5F5000000000000000000
310
0000000000F5F500000000000000000000000000000000000000000000DCDCDCDCDCDCF5F5DCDCDCDCDCDCDC0066F5000000F5F5000000F5F5F5F5F5F5F5F5F5F5F5F5F5F5F5F500000000000000000000000000000000000000000000F5F50000000000000000000000000000F5F5F5F5F5F5F5F5F5F5F5F5F5F5F5F5F5F5
310
000000000000F5DCDCDCDCDCDCF5F5DCDCDCDCDCDC006666F5000000F5F5F5F5F5F5F5F5F5F5F5F5F5F5F5F5F5F5F5F500000000000000000000000000000000000000000000F5F50000000000000000000000000000F5F5F5F5F5F5F5F5F5F5F5F5F5F5F5F5F5F50000000000F5F5DCDCDCDCDCDCDCDCDCDCDCDCDCDC0066
310
66F5F50000000000000000000000000000000000000000000000000000000000000000000000000000000000000000F5F50000000000000000000000000000F5F5000000F5F5F5F5F5F5F5F5F5F5F5F5F500000000F5F5DCDCDCDCDCDCDCDCDCDCDCDCDCDCDC00666600F50000000000000000000000000000000000000000
310
000000000000000000000000000000000000000000000000F5F50000000000000000000000000000F5F5000000F5F5F5F5F5F5F5F5F5F5F5F5F5F5F5F5F5F500DCDCDCDCDCDCDCDCDCDCDCDCDCDCDC00666600F5F50000000000F5F5F5F5F5F5F5F5F500000000000000000000000000000000000000000000000000000000
310
00F5F50000000000000000000000000000F5F500000000000000000000000000000000000000000000DCDCDCDCDCDCDCDCDCDCDCDCDCDCDC0066660000F5F500000000F5F5F5F5F5F5F5F5F50000000000000000000000000000000000000000000000000000000000F5F50000000000000000000000000000F5F500000000
310
000000000000000000000000000000000000DCDCDCDCDCDCDCDCDCDCDCDCDCDCDC006666000000F5F5F50000F5F5F5F5F5F5F5F5F5F5F5F5F5F5F50000000000000000000000000000000000000000000000F5F50000000000000000000000000000F5F500000000000000000000000000000000000000000000DCDCDCDCDC
310
DCDCDCDCDCDCDCDCDCDC0066660000000000F5F5F5F5F5F5F5F5F5F5F5F5F5F5F5F5F5F50000000000000000000000000000000000000000000000F5F50000000000000000000000000000F5F500000000000000000000000000000000000000F5F5F5DCDCDCDCDCDCDCDCDCDCDCDCDCDCDCF5F5F5F5000000000000000000
310
000000000000000000000000000000000000000000000000000000000000000000000000F5F50000000000000000000000000000F5F50000000000000000000000000000000000000000000000DC0000000000F500000000DC0000000000000000000000000000000000000000000000000000000000000000000000000000
310
00000000000000000000000000F5F50000000000000000000000000000F5F50000000000000000000000000000000000000000000000000000000000000000000000000000000000000000000000000000000000000000000000000000000000000000000000000000000000000000000000000000F5F50000000000000000
310
000000000000F5F50000000000000000000000000000000000000000000000000000000000000000000000000000000000000000000000000000000000000000000000000000000000000000000000000000000000000000000000000000F5F50000000000000000000000000000F5F5000000000000000000000000000000
310
0000000000000000000000000000000000000000000000000000000000000000000000000000000000000000000000000000000000000000000000000000000000000000000000F5F50000000000000000000000000000F5F50000000000000000000000000000000000000000000000000000000000000000000000000000
310
000000000000000000000000000000000000000000000000000000000000000000000000000000000000000000000000F5F50000000000000000000000000000F5F500000000000000000000000000000000000000000000000000000000000000000000000000000000000000000000000000000000000000000000000000
310
00000000000000000000000000000000000000000000000000F5F50000000000000000000000000000F5F5000000000000000000000000000000000000000000000000000000000000000000000000000000000000000000000000000000000000000000000000000000000000000000000000000000000000000000000000
310
0000F5F50000000000000000000000000000F5F50000000000000000000000000000000000000000000000000000000000000000000000000000000000000000000000000000000000000000000000000000000000000000000000000000000000000000000000000000F5F50000000000000000000000000000F5F5000000
310
0000000000000000000000000000000000000000000000000000000000000000000000000000000000000000000000000000000000000000000000000000000000000000000000000000000000000000000000F5F50000000000000000000000000000F5F50000000000000000000000000000000000000000000000000000
310
000000000000000000000000000000000000000000000000000000000000000000000000000000000000000000000000000000000000000000000000F5F50000000000000000000000000000F5F500000000000000000000000000000000000000000000000000000000000000000000000000000000000000000000000000
310
00000000000000000000000000000000000000000000000000000000000000000000000000F5F50000000000000000000000000000F5F5000000000000000000000000000000000000000000000000000000000000000000000000000000000000000000000000000000000000000000000000000000000000000000000000
310
0000000000000000000000000000F5F50000000000000000000000000000F5F50000000000000000000000000000000000000000000000000000000000000000000000000000000000000000000000000000000000000000000000000000000000000000000000000000000000000000000000000000F5F500000000000000
310
00000000000000F5F50000000000000000000000000000000000000000000000000000000000000000000000000000000000000000000000000000000000000000000000000000000000000000000000000000000000000000000000000000F5F50000000000000000000000000000F5F50000000000000000000000000000
310
000000000000000000000000000000000000000000000000000000000000000000000000000000000000000000000000000000000000000000000000000000000000000000000000F5F50000000000000000000000000000F5F500000000000000000000000000000000000000000000000000000000000000000000000000
310
00000000000000000000000000000000000000000000000000000000000000000000000000000000000000000000000000F5F50000000000000000000000000000F5F5000000000000000000000000000000000000000000000000000000000000000000000000000000000000000000000000000000000000000000000000
310
0000000000000000000000000000000000000000000000000000F5F50000000000000000000000000000F5F50000000000000000000000000000000000000000000000000000000000000000000000000000000000000000000000000000000000000000000000000000000000000000000000000000000000000000000000
310
000000F5F50000000000000000000000000000F5F50000000000000000000000000000000000000000000000000000000000000000000000000000000000000000000000000000000000000000000000000000000000000000000000000000000000000000000000000000F5F50000000000000000000000000000F5F50000
310
000000000000000000000000000000000000000000000000000000000000000000000000000000000000000000000000000000000000000000000000000000000000000000000000000000000000000000000000F5F50000000000000000000000000000F5F500000000000000000000000000000000000000000000000000
310
00000000000000000000000000000000000000000000000000000000000000000000000000000000000000000000000000000000000000000000000000F5F50000000000000000000000000000F5F5000000000000000000000000000000000000000000000000000000000000000000000000000000000000000000000000
310
0000000000000000000000000000000000000000000000000000000000000000000000000000F5F50000000000000000000000000000F5F5C3C3C3C3C3C3C3C3C3C3C3C3C3C3C3C3C3C3C3C3C3C3C3C3C3C3C3C3C3C3C3C3C3C3C3C3C3C3C3C3C3C3C3C3C3C3C3C3C3C3C3C3C3C3C3C3C3C3C3C3C3C3C3C3C3C3C3C3C3C3C3
310
C3C3C3C3C3C3C3C3C3C3C3C3C3C3C3F5F50000000000000000000000000000F5F50000000000000000000000000000000000000000000000000000000000000000000000000000000000000000000000000000000000000000000000000000000000000000000000000000000000000000000000000000F5F5000000000000
310
0000000000000000F5F50000000000000000000000000000000000000000000000000000000000000000000000000000000000000000000000000000000000000000000000000000000000000000000000000000000000000000000000000000F5F50000000000000000000000000000F5F500000000000000000000000000
310
00000000000000000000000000000000000000000000000000000000000000000000000000000000000000000000000000000000000000000000000000000000000000000000000000F5F50000000000000000000000000000F5F5000000000000000000000000000000000000000000000000000000000000000000000000
310
0000000000000000000000000000000000000000000000000000000000000000000000000000000000000000000000000000F5F50000000000000000000000000000F5F50000000000000000000000000000000000000000000000000000000000000000000000000000000000000000000000000000000000000000000000
310
000000000000000000000000000000000000000000000000000000F5F50000000000000000000000000000F5F500000000000000000000000000000000000000000000000000000000000000000000000000000000000000000000000000000000000000000000000000000000000000000000000000000000000000000000
310
00000000F5F50000000000000000000000000000F5F5F5F5F5F5F5F5F5F5F5F5F5F5F5F5F5F5F5F5F5F5F5F5F5F5F5F5F5F5F5F5F5F5F5F5F5F5F5F5F5F5F5F5F5F5F5F5F5F5F5F5F5F5F5F5F5F5F5F5F5F5F5F5F5F5F5F5F5F5F5F5F5F5F5F5F5F5F5F5F5F5F5F5F5F5F5F5F5F50000000000000000000000000000F5F5F5
310
F5F5F5F5F5F5F5F5F5F5F5F5F5F5F5F5F5F5F5F5F5F5F5F5F5F5F5F5F5F5F5F5F5F5F5F5F5F5F5F5F5F5F5F5F5F5F5F5F5F5F5F5F5F5F5F5F5F5F5F5F5F5F5F5F5F5F5F5F5F5F5F5F5F5F5F5F5F5F5F5F5F5F5F5F5F50000000000000000000000000000000000000000000000000000000000000000000000000000000000
310
00000000000000000000000000000000000000000000000000000000000000000000000000000000000000000000000000000000000000000000000000000000000000000000000000000000000000000000000000000000000000000000000000000000000000000000000000000000000000000000000000000000000000
310
00000000000000000000000000000000000000000000000000000000000000000000000000000000000000000000000000000000000000000000000000000000000000000000000000000000000000000000000000000000000000000000000000000000000000000000000000000000000000000000000000000000000000
310
00000000000000000000000000000000000000000000000000000000000000000000000000000000000000000000000000000000000000000000000000000000000000000000000000000000000000000000000000000000000000000000000000000000000000000000000000000000000000000000000000000000000000
310
000000
  0
XRECORD
  5
7A7C
102
{ACAD_REACTORS
330
2F40
102
}
330
2F40
100
AcDbXrecord
280
     1
102
MATERIAL
148
0.0
149
0.0
149
0.0
 93
        0
 94
      127
282
     0
 72
     0
 77
     0
171
     0
175
     0
179
     0
273
     0
  0
XRECORD
  5
2F42
102
{ACAD_REACTORS
330
2F40
102
}
330
2F40
100
AcDbXrecord
280
     1
270
     1
271
     1
  0
XRECORD
  5
2F41
102
{ACAD_REACTORS
330
2F40
102
}
330
2F40
100
AcDbXrecord
280
     1
270
     1
271
     1
  0
XRECORD
  5
2F45
102
{ACAD_REACTORS
330
2F40
102
}
330
2F40
100
AcDbXrecord
280
     1
270
     1
271
     1
  0
XRECORD
  5
2F44
102
{ACAD_REACTORS
330
2F40
102
}
330
2F40
100
AcDbXrecord
280
     1
270
     1
271
     1
  0
XRECORD
  5
2F46
102
{ACAD_REACTORS
330
2F40
102
}
330
2F40
100
AcDbXrecord
280
     1
270
     1
271
     1
  0
XRECORD
  5
2F43
102
{ACAD_REACTORS
330
2F40
102
}
330
2F40
100
AcDbXrecord
280
     1
270
     1
271
     1
  0
XRECORD
  5
7A7B
102
{ACAD_REACTORS
330
2F38
102
}
330
2F38
100
AcDbXrecord
280
     1
102
MATERIAL
148
0.0
149
0.0
149
0.0
 93
        0
 94
      127
282
     0
 72
     0
 77
     0
171
     0
175
     0
179
     0
273
     0
  0
XRECORD
  5
2F3A
102
{ACAD_REACTORS
330
2F38
102
}
330
2F38
100
AcDbXrecord
280
     1
270
     1
271
     1
  0
XRECORD
  5
2F39
102
{ACAD_REACTORS
330
2F38
102
}
330
2F38
100
AcDbXrecord
280
     1
270
     1
271
     1
  0
XRECORD
  5
2F3D
102
{ACAD_REACTORS
330
2F38
102
}
330
2F38
100
AcDbXrecord
280
     1
270
     1
271
     1
  0
XRECORD
  5
2F3C
102
{ACAD_REACTORS
330
2F38
102
}
330
2F38
100
AcDbXrecord
280
     1
270
     1
271
     1
  0
XRECORD
  5
2F3E
102
{ACAD_REACTORS
330
2F38
102
}
330
2F38
100
AcDbXrecord
280
     1
270
     1
271
     1
  0
XRECORD
  5
2F3B
102
{ACAD_REACTORS
330
2F38
102
}
330
2F38
100
AcDbXrecord
280
     1
270
     1
271
     1
  0
XRECORD
  5
7A7D
102
{ACAD_REACTORS
330
2F48
102
}
330
2F48
100
AcDbXrecord
280
     1
102
MATERIAL
148
0.0
149
0.0
149
0.0
 93
        0
 94
      127
282
     0
 72
     0
 77
     0
171
     0
175
     0
179
     0
273
     0
  0
XRECORD
  5
2F4A
102
{ACAD_REACTORS
330
2F48
102
}
330
2F48
100
AcDbXrecord
280
     1
270
     1
271
     1
  0
XRECORD
  5
2F49
102
{ACAD_REACTORS
330
2F48
102
}
330
2F48
100
AcDbXrecord
280
     1
270
     1
271
     1
  0
XRECORD
  5
2F4D
102
{ACAD_REACTORS
330
2F48
102
}
330
2F48
100
AcDbXrecord
280
     1
270
     1
271
     1
  0
XRECORD
  5
2F4C
102
{ACAD_REACTORS
330
2F48
102
}
330
2F48
100
AcDbXrecord
280
     1
270
     1
271
     1
  0
XRECORD
  5
2F4E
102
{ACAD_REACTORS
330
2F48
102
}
330
2F48
100
AcDbXrecord
280
     1
270
     1
271
     1
  0
XRECORD
  5
2F4B
102
{ACAD_REACTORS
330
2F48
102
}
330
2F48
100
AcDbXrecord
280
     1
270
     1
271
     1
  0
CELLSTYLEMAP
  5
7A6E
102
{ACAD_REACTORS
330
2FC0
102
}
330
2FC0
100
AcDbCellStyleMap
 90
        3
300
CELLSTYLE
  1
TABLEFORMAT_BEGIN
 90
        5
170
     1
 91
        0
 92
    32768
 62
   257
 93
        1
300
CONTENTFORMAT
  1
CONTENTFORMAT_BEGIN
 90
        0
 91
        0
 92
      512
 93
        0
300

 40
0.0
140
1.0
 94
        5
 62
     0
340
555
144
0.25
309
CONTENTFORMAT_END
171
     0
 94
        0
309
TABLEFORMAT_END
  1
CELLSTYLE_BEGIN
 90
        1
 91
        1
300
_TITLE
309
CELLSTYLE_END
300
CELLSTYLE
  1
TABLEFORMAT_BEGIN
 90
        5
170
     1
 91
        0
 92
        0
 62
   257
 93
        1
300
CONTENTFORMAT
  1
CONTENTFORMAT_BEGIN
 90
        0
 91
        0
 92
      512
 93
        0
300

 40
0.0
140
1.0
 94
        5
 62
     0
340
555
144
0.18
309
CONTENTFORMAT_END
171
     0
 94
        0
309
TABLEFORMAT_END
  1
CELLSTYLE_BEGIN
 90
        2
 91
        1
300
_HEADER
309
CELLSTYLE_END
300
CELLSTYLE
  1
TABLEFORMAT_BEGIN
 90
        5
170
     1
 91
        0
 92
        0
 62
   257
 93
        1
300
CONTENTFORMAT
  1
CONTENTFORMAT_BEGIN
 90
        0
 91
        0
 92
      512
 93
        0
300

 40
0.0
140
1.0
 94
        2
 62
     0
340
555
144
0.18
309
CONTENTFORMAT_END
171
     0
 94
        0
309
TABLEFORMAT_END
  1
CELLSTYLE_BEGIN
 90
        3
 91
        2
300
_DATA
309
CELLSTYLE_END
  0
XRECORD
  5
7A9E
102
{ACAD_REACTORS
330
2FC0
102
}
330
2FC0
100
AcDbXrecord
280
     1
102
ACAD_ROUNDTRIP_PRE2007_TABLESTYLE
 90
      512
 91
        0
  1

 92
      512
 93
        0
  2

 94
      512
 95
        0
  3

  0
XRECORD
  5
7A89
102
{ACAD_REACTORS
330
7A88
102
}
330
7A88
100
AcDbXrecord
280
     1
102
RTVSPost2010Prop28
280
     1
102
RTVSPost2010PropOp28
 70
     1
102
RTVSPost2010Prop29
280
     1
102
RTVSPost2010PropOp29
 70
     1
102
RTVSPost2010Prop30
280
     0
102
RTVSPost2010PropOp30
 70
     1
102
RTVSPost2010Prop31
280
     0
102
RTVSPost2010PropOp31
 70
     1
102
RTVSPost2010Prop32
280
     0
102
RTVSPost2010PropOp32
 70
     1
102
RTVSPost2010Prop33
280
     0
102
RTVSPost2010PropOp33
 70
     1
102
RTVSPost2010Prop34
280
     0
102
RTVSPost2010PropOp34
 70
     1
102
RTVSPost2010Prop35
280
     0
102
RTVSPost2010PropOp35
 70
     1
102
RTVSPost2010Prop36
280
     0
102
RTVSPost2010PropOp36
 70
     1
102
RTVSPost2010Prop37
 90
       50
102
RTVSPost2010PropOp37
 70
     1
102
RTVSPost2010Prop38
140
0.0
102
RTVSPost2010PropOp38
 70
     1
102
RTVSPost2010Prop39
140
1.0
102
RTVSPost2010PropOp39
 70
     1
102
RTVSPost2010Prop40
 90
        0
102
RTVSPost2010PropOp40
 70
     1
102
RTVSPost2010Prop41ColorIndex
 90
       18
102
RTVSPost2010Prop41ColorRGB
 90
        0
102
RTVSPost2010PropOp41
 70
     1
102
RTVSPost2010Prop42
 90
       50
102
RTVSPost2010PropOp42
 70
     1
102
RTVSPost2010Prop43
 90
        3
102
RTVSPost2010PropOp43
 70
     1
102
RTVSPost2010Prop44ColorIndex
 90
        5
102
RTVSPost2010Prop44ColorRGB
 90
      255
102
RTVSPost2010PropOp44
 70
     1
102
RTVSPost2010Prop45
280
     0
102
RTVSPost2010PropOp45
 70
     1
102
RTVSPost2010Prop46
 90
       50
102
RTVSPost2010PropOp46
 70
     1
102
RTVSPost2010Prop47
 90
       50
102
RTVSPost2010PropOp47
 70
     1
102
RTVSPost2010Prop48
 90
       50
102
RTVSPost2010PropOp48
 70
     1
102
RTVSPost2010Prop49
280
     0
102
RTVSPost2010PropOp49
 70
     1
102
RTVSPost2010Prop50
 90
       50
102
RTVSPost2010PropOp50
 70
     1
102
RTVSPost2010Prop51ColorIndex
 90
      256
102
RTVSPost2010Prop51ColorRGB
 90
-16777216
102
RTVSPost2010PropOp51
 70
     0
102
RTVSPost2010Prop52
140
1.0
102
RTVSPost2010PropOp52
 70
     0
102
RTVSPost2010Prop53
 90
        2
102
RTVSPost2010PropOp53
 70
     1
102
RTVSPost2010Prop54
  1
strokes_ogs.tif
102
RTVSPost2010PropOp54
 70
     1
102
RTVSPost2010Prop55
280
     0
102
RTVSPost2010PropOp55
 70
     1
102
RTVSPost2010Prop56
140
1.0
102
RTVSPost2010PropOp56
 70
     1
102
RTVSPost2010Prop57
140
1.0
102
RTVSPost2010PropOp57
 70
     1
102
RTVSPropertyOp0
 70
     1
102
RTVSPropertyOp1
 70
     1
102
RTVSPropertyOp2
 70
     1
102
RTVSPropertyOp3
 70
     1
102
RTVSPropertyOp4
 70
     1
102
RTVSPropertyOp5
 70
     1
102
RTVSPropertyOp6
 70
     1
102
RTVSPropertyOp7
 70
     1
102
RTVSPropertyOp8
 70
     1
102
RTVSPropertyOp9
 70
     1
102
RTVSPropertyOp10
 70
     1
102
RTVSPropertyOp11
 70
     1
102
RTVSPropertyOp12
 70
     1
102
RTVSPropertyOp13
 70
     1
102
RTVSPropertyOp14
 70
     1
102
RTVSPropertyOp15
 70
     1
102
RTVSPropertyOp16
 70
     1
102
RTVSPropertyOp17
 70
     1
102
RTVSPropertyOp18
 70
     1
102
RTVSPropertyOp19
 70
     1
102
RTVSPropertyOp20
 70
     1
102
RTVSPropertyOp21
 70
     1
102
RTVSPropertyOp22
 70
     1
102
RTVSPropertyOp23
 70
     1
102
RTVSPropertyOp24
 70
     1
102
RTVSPropertyOp25
 70
     1
102
RTVSPropertyOp26
 70
     1
102
RTVSPropertyOp27
 70
     1
102
RTVSPropertyOp28
 70
     1
102
RTVSPropertyOp29
 70
     1
102
RTVSPropertyOp30
 70
     1
102
RTVSPropertyOp31
 70
     1
102
RTVSPropertyOp32
 70
     1
102
RTVSPropertyOp33
 70
     1
102
RTVSPropertyOp34
 70
     1
102
RTVSPropertyOp35
 70
     1
102
RTVSPropertyOp36
 70
     1
102
RTVSPropertyOp37
 70
     1
102
RTVSPropertyOp38
 70
     1
102
RTVSPropertyOp39
 70
     1
102
RTVSPropertyOp40
 70
     1
102
RTVSPropertyOp41
 70
     1
102
RTVSPropertyOp42
 70
     1
102
RTVSPropertyOp43
 70
     1
102
RTVSPropertyOp44
 70
     1
102
RTVSPropertyOp45
 70
     1
102
RTVSPropertyOp46
 70
     1
102
RTVSPropertyOp47
 70
     1
102
RTVSPropertyOp48
 70
     1
102
RTVSPropertyOp49
 70
     1
102
RTVSPropertyOp50
 70
     1
102
RTVSPropertyOp51
 70
     0
102
RTVSPropertyOp52
 70
     0
102
RTVSPropertyOp53
 70
     1
102
RTVSPropertyOp54
 70
     1
102
RTVSPropertyOp55
 70
     1
102
RTVSPropertyOp56
 70
     1
102
RTVSPropertyOp57
 70
     1
102
RTVSPropertyOp58
 70
     1
102
RTVSPropertyOp59
 70
     1
102
RTVSPropertyOp60
 70
     1
102
RTVSPropertyOp61
 70
     1
102
RTVSPropertyOp62
 70
     1
  0
XRECORD
  5
7A8D
102
{ACAD_REACTORS
330
7A8C
102
}
330
7A8C
100
AcDbXrecord
280
     1
102
RTVSPost2010Prop28
280
     0
102
RTVSPost2010PropOp28
 70
     1
102
RTVSPost2010Prop29
280
     1
102
RTVSPost2010PropOp29
 70
     1
102
RTVSPost2010Prop30
280
     1
102
RTVSPost2010PropOp30
 70
     1
102
RTVSPost2010Prop31
280
     0
102
RTVSPost2010PropOp31
 70
     1
102
RTVSPost2010Prop32
280
     0
102
RTVSPost2010PropOp32
 70
     1
102
RTVSPost2010Prop33
280
     0
102
RTVSPost2010PropOp33
 70
     1
102
RTVSPost2010Prop34
280
     0
102
RTVSPost2010PropOp34
 70
     1
102
RTVSPost2010Prop35
280
     0
102
RTVSPost2010PropOp35
 70
     1
102
RTVSPost2010Prop36
280
     0
102
RTVSPost2010PropOp36
 70
     1
102
RTVSPost2010Prop37
 90
       50
102
RTVSPost2010PropOp37
 70
     1
102
RTVSPost2010Prop38
140
0.0
102
RTVSPost2010PropOp38
 70
     1
102
RTVSPost2010Prop39
140
1.0
102
RTVSPost2010PropOp39
 70
     1
102
RTVSPost2010Prop40
 90
        0
102
RTVSPost2010PropOp40
 70
     1
102
RTVSPost2010Prop41ColorIndex
 90
       18
102
RTVSPost2010Prop41ColorRGB
 90
        0
102
RTVSPost2010PropOp41
 70
     1
102
RTVSPost2010Prop42
 90
       50
102
RTVSPost2010PropOp42
 70
     1
102
RTVSPost2010Prop43
 90
        3
102
RTVSPost2010PropOp43
 70
     1
102
RTVSPost2010Prop44ColorIndex
 90
        5
102
RTVSPost2010Prop44ColorRGB
 90
      255
102
RTVSPost2010PropOp44
 70
     1
102
RTVSPost2010Prop45
280
     0
102
RTVSPost2010PropOp45
 70
     1
102
RTVSPost2010Prop46
 90
       50
102
RTVSPost2010PropOp46
 70
     1
102
RTVSPost2010Prop47
 90
       50
102
RTVSPost2010PropOp47
 70
     1
102
RTVSPost2010Prop48
 90
       50
102
RTVSPost2010PropOp48
 70
     1
102
RTVSPost2010Prop49
280
     0
102
RTVSPost2010PropOp49
 70
     1
102
RTVSPost2010Prop50
 90
       50
102
RTVSPost2010PropOp50
 70
     1
102
RTVSPost2010Prop51ColorIndex
 90
      256
102
RTVSPost2010Prop51ColorRGB
 90
-16777216
102
RTVSPost2010PropOp51
 70
     0
102
RTVSPost2010Prop52
140
1.0
102
RTVSPost2010PropOp52
 70
     0
102
RTVSPost2010Prop53
 90
        2
102
RTVSPost2010PropOp53
 70
     1
102
RTVSPost2010Prop54
  1
strokes_ogs.tif
102
RTVSPost2010PropOp54
 70
     1
102
RTVSPost2010Prop55
280
     0
102
RTVSPost2010PropOp55
 70
     1
102
RTVSPost2010Prop56
140
1.0
102
RTVSPost2010PropOp56
 70
     1
102
RTVSPost2010Prop57
140
1.0
102
RTVSPost2010PropOp57
 70
     1
102
RTVSPropertyOp0
 70
     1
102
RTVSPropertyOp1
 70
     1
102
RTVSPropertyOp2
 70
     1
102
RTVSPropertyOp3
 70
     1
102
RTVSPropertyOp4
 70
     1
102
RTVSPropertyOp5
 70
     1
102
RTVSPropertyOp6
 70
     1
102
RTVSPropertyOp7
 70
     1
102
RTVSPropertyOp8
 70
     1
102
RTVSPropertyOp9
 70
     1
102
RTVSPropertyOp10
 70
     1
102
RTVSPropertyOp11
 70
     1
102
RTVSPropertyOp12
 70
     1
102
RTVSPropertyOp13
 70
     1
102
RTVSPropertyOp14
 70
     1
102
RTVSPropertyOp15
 70
     1
102
RTVSPropertyOp16
 70
     1
102
RTVSPropertyOp17
 70
     1
102
RTVSPropertyOp18
 70
     1
102
RTVSPropertyOp19
 70
     1
102
RTVSPropertyOp20
 70
     1
102
RTVSPropertyOp21
 70
     1
102
RTVSPropertyOp22
 70
     1
102
RTVSPropertyOp23
 70
     1
102
RTVSPropertyOp24
 70
     1
102
RTVSPropertyOp25
 70
     1
102
RTVSPropertyOp26
 70
     1
102
RTVSPropertyOp27
 70
     1
102
RTVSPropertyOp28
 70
     1
102
RTVSPropertyOp29
 70
     1
102
RTVSPropertyOp30
 70
     1
102
RTVSPropertyOp31
 70
     1
102
RTVSPropertyOp32
 70
     1
102
RTVSPropertyOp33
 70
     1
102
RTVSPropertyOp34
 70
     1
102
RTVSPropertyOp35
 70
     1
102
RTVSPropertyOp36
 70
     1
102
RTVSPropertyOp37
 70
     1
102
RTVSPropertyOp38
 70
     1
102
RTVSPropertyOp39
 70
     1
102
RTVSPropertyOp40
 70
     1
102
RTVSPropertyOp41
 70
     1
102
RTVSPropertyOp42
 70
     1
102
RTVSPropertyOp43
 70
     1
102
RTVSPropertyOp44
 70
     1
102
RTVSPropertyOp45
 70
     1
102
RTVSPropertyOp46
 70
     1
102
RTVSPropertyOp47
 70
     1
102
RTVSPropertyOp48
 70
     1
102
RTVSPropertyOp49
 70
     1
102
RTVSPropertyOp50
 70
     1
102
RTVSPropertyOp51
 70
     0
102
RTVSPropertyOp52
 70
     0
102
RTVSPropertyOp53
 70
     1
102
RTVSPropertyOp54
 70
     1
102
RTVSPropertyOp55
 70
     1
102
RTVSPropertyOp56
 70
     1
102
RTVSPropertyOp57
 70
     1
102
RTVSPropertyOp58
 70
     1
102
RTVSPropertyOp59
 70
     1
102
RTVSPropertyOp60
 70
     1
102
RTVSPropertyOp61
 70
     1
102
RTVSPropertyOp62
 70
     1
  0
XRECORD
  5
7A8B
102
{ACAD_REACTORS
330
7A8A
102
}
330
7A8A
100
AcDbXrecord
280
     1
102
RTVSPost2010Prop28
280
     0
102
RTVSPost2010PropOp28
 70
     1
102
RTVSPost2010Prop29
280
     1
102
RTVSPost2010PropOp29
 70
     1
102
RTVSPost2010Prop30
280
     1
102
RTVSPost2010PropOp30
 70
     1
102
RTVSPost2010Prop31
280
     0
102
RTVSPost2010PropOp31
 70
     1
102
RTVSPost2010Prop32
280
     0
102
RTVSPost2010PropOp32
 70
     1
102
RTVSPost2010Prop33
280
     0
102
RTVSPost2010PropOp33
 70
     1
102
RTVSPost2010Prop34
280
     0
102
RTVSPost2010PropOp34
 70
     1
102
RTVSPost2010Prop35
280
     0
102
RTVSPost2010PropOp35
 70
     1
102
RTVSPost2010Prop36
280
     0
102
RTVSPost2010PropOp36
 70
     1
102
RTVSPost2010Prop37
 90
       50
102
RTVSPost2010PropOp37
 70
     1
102
RTVSPost2010Prop38
140
0.0
102
RTVSPost2010PropOp38
 70
     1
102
RTVSPost2010Prop39
140
1.0
102
RTVSPost2010PropOp39
 70
     1
102
RTVSPost2010Prop40
 90
        0
102
RTVSPost2010PropOp40
 70
     1
102
RTVSPost2010Prop41ColorIndex
 90
       18
102
RTVSPost2010Prop41ColorRGB
 90
        0
102
RTVSPost2010PropOp41
 70
     1
102
RTVSPost2010Prop42
 90
       50
102
RTVSPost2010PropOp42
 70
     1
102
RTVSPost2010Prop43
 90
        3
102
RTVSPost2010PropOp43
 70
     1
102
RTVSPost2010Prop44ColorIndex
 90
        5
102
RTVSPost2010Prop44ColorRGB
 90
      255
102
RTVSPost2010PropOp44
 70
     1
102
RTVSPost2010Prop45
280
     0
102
RTVSPost2010PropOp45
 70
     1
102
RTVSPost2010Prop46
 90
       50
102
RTVSPost2010PropOp46
 70
     1
102
RTVSPost2010Prop47
 90
       50
102
RTVSPost2010PropOp47
 70
     1
102
RTVSPost2010Prop48
 90
       50
102
RTVSPost2010PropOp48
 70
     1
102
RTVSPost2010Prop49
280
     0
102
RTVSPost2010PropOp49
 70
     1
102
RTVSPost2010Prop50
 90
       50
102
RTVSPost2010PropOp50
 70
     1
102
RTVSPost2010Prop51ColorIndex
 90
      256
102
RTVSPost2010Prop51ColorRGB
 90
-16777216
102
RTVSPost2010PropOp51
 70
     0
102
RTVSPost2010Prop52
140
1.0
102
RTVSPost2010PropOp52
 70
     0
102
RTVSPost2010Prop53
 90
        2
102
RTVSPost2010PropOp53
 70
     1
102
RTVSPost2010Prop54
  1
strokes_ogs.tif
102
RTVSPost2010PropOp54
 70
     1
102
RTVSPost2010Prop55
280
     0
102
RTVSPost2010PropOp55
 70
     1
102
RTVSPost2010Prop56
140
1.0
102
RTVSPost2010PropOp56
 70
     1
102
RTVSPost2010Prop57
140
1.0
102
RTVSPost2010PropOp57
 70
     1
102
RTVSPropertyOp0
 70
     1
102
RTVSPropertyOp1
 70
     1
102
RTVSPropertyOp2
 70
     1
102
RTVSPropertyOp3
 70
     1
102
RTVSPropertyOp4
 70
     1
102
RTVSPropertyOp5
 70
     1
102
RTVSPropertyOp6
 70
     1
102
RTVSPropertyOp7
 70
     1
102
RTVSPropertyOp8
 70
     1
102
RTVSPropertyOp9
 70
     1
102
RTVSPropertyOp10
 70
     1
102
RTVSPropertyOp11
 70
     1
102
RTVSPropertyOp12
 70
     1
102
RTVSPropertyOp13
 70
     1
102
RTVSPropertyOp14
 70
     1
102
RTVSPropertyOp15
 70
     1
102
RTVSPropertyOp16
 70
     1
102
RTVSPropertyOp17
 70
     1
102
RTVSPropertyOp18
 70
     1
102
RTVSPropertyOp19
 70
     1
102
RTVSPropertyOp20
 70
     1
102
RTVSPropertyOp21
 70
     1
102
RTVSPropertyOp22
 70
     1
102
RTVSPropertyOp23
 70
     1
102
RTVSPropertyOp24
 70
     1
102
RTVSPropertyOp25
 70
     1
102
RTVSPropertyOp26
 70
     1
102
RTVSPropertyOp27
 70
     1
102
RTVSPropertyOp28
 70
     1
102
RTVSPropertyOp29
 70
     1
102
RTVSPropertyOp30
 70
     1
102
RTVSPropertyOp31
 70
     1
102
RTVSPropertyOp32
 70
     1
102
RTVSPropertyOp33
 70
     1
102
RTVSPropertyOp34
 70
     1
102
RTVSPropertyOp35
 70
     1
102
RTVSPropertyOp36
 70
     1
102
RTVSPropertyOp37
 70
     1
102
RTVSPropertyOp38
 70
     1
102
RTVSPropertyOp39
 70
     1
102
RTVSPropertyOp40
 70
     1
102
RTVSPropertyOp41
 70
     1
102
RTVSPropertyOp42
 70
     1
102
RTVSPropertyOp43
 70
     1
102
RTVSPropertyOp44
 70
     1
102
RTVSPropertyOp45
 70
     1
102
RTVSPropertyOp46
 70
     1
102
RTVSPropertyOp47
 70
     1
102
RTVSPropertyOp48
 70
     1
102
RTVSPropertyOp49
 70
     1
102
RTVSPropertyOp50
 70
     1
102
RTVSPropertyOp51
 70
     0
102
RTVSPropertyOp52
 70
     0
102
RTVSPropertyOp53
 70
     1
102
RTVSPropertyOp54
 70
     1
102
RTVSPropertyOp55
 70
     1
102
RTVSPropertyOp56
 70
     1
102
RTVSPropertyOp57
 70
     1
102
RTVSPropertyOp58
 70
     1
102
RTVSPropertyOp59
 70
     1
102
RTVSPropertyOp60
 70
     1
102
RTVSPropertyOp61
 70
     1
102
RTVSPropertyOp62
 70
     1
  0
XRECORD
  5
7A87
102
{ACAD_REACTORS
330
7A86
102
}
330
7A86
100
AcDbXrecord
280
     1
102
RTVSPost2010Prop28
280
     0
102
RTVSPost2010PropOp28
 70
     1
102
RTVSPost2010Prop29
280
     1
102
RTVSPost2010PropOp29
 70
     1
102
RTVSPost2010Prop30
280
     1
102
RTVSPost2010PropOp30
 70
     1
102
RTVSPost2010Prop31
280
     0
102
RTVSPost2010PropOp31
 70
     1
102
RTVSPost2010Prop32
280
     0
102
RTVSPost2010PropOp32
 70
     1
102
RTVSPost2010Prop33
280
     0
102
RTVSPost2010PropOp33
 70
     1
102
RTVSPost2010Prop34
280
     0
102
RTVSPost2010PropOp34
 70
     1
102
RTVSPost2010Prop35
280
     0
102
RTVSPost2010PropOp35
 70
     1
102
RTVSPost2010Prop36
280
     0
102
RTVSPost2010PropOp36
 70
     1
102
RTVSPost2010Prop37
 90
       50
102
RTVSPost2010PropOp37
 70
     1
102
RTVSPost2010Prop38
140
0.0
102
RTVSPost2010PropOp38
 70
     1
102
RTVSPost2010Prop39
140
1.0
102
RTVSPost2010PropOp39
 70
     1
102
RTVSPost2010Prop40
 90
        0
102
RTVSPost2010PropOp40
 70
     1
102
RTVSPost2010Prop41ColorIndex
 90
       18
102
RTVSPost2010Prop41ColorRGB
 90
        0
102
RTVSPost2010PropOp41
 70
     1
102
RTVSPost2010Prop42
 90
       50
102
RTVSPost2010PropOp42
 70
     1
102
RTVSPost2010Prop43
 90
        3
102
RTVSPost2010PropOp43
 70
     1
102
RTVSPost2010Prop44ColorIndex
 90
        5
102
RTVSPost2010Prop44ColorRGB
 90
      255
102
RTVSPost2010PropOp44
 70
     1
102
RTVSPost2010Prop45
280
     0
102
RTVSPost2010PropOp45
 70
     1
102
RTVSPost2010Prop46
 90
       50
102
RTVSPost2010PropOp46
 70
     1
102
RTVSPost2010Prop47
 90
       50
102
RTVSPost2010PropOp47
 70
     1
102
RTVSPost2010Prop48
 90
       50
102
RTVSPost2010PropOp48
 70
     1
102
RTVSPost2010Prop49
280
     0
102
RTVSPost2010PropOp49
 70
     1
102
RTVSPost2010Prop50
 90
       50
102
RTVSPost2010PropOp50
 70
     1
102
RTVSPost2010Prop51ColorIndex
 90
      256
102
RTVSPost2010Prop51ColorRGB
 90
-16777216
102
RTVSPost2010PropOp51
 70
     0
102
RTVSPost2010Prop52
140
1.0
102
RTVSPost2010PropOp52
 70
     0
102
RTVSPost2010Prop53
 90
        2
102
RTVSPost2010PropOp53
 70
     1
102
RTVSPost2010Prop54
  1
strokes_ogs.tif
102
RTVSPost2010PropOp54
 70
     1
102
RTVSPost2010Prop55
280
     0
102
RTVSPost2010PropOp55
 70
     1
102
RTVSPost2010Prop56
140
1.0
102
RTVSPost2010PropOp56
 70
     1
102
RTVSPost2010Prop57
140
1.0
102
RTVSPost2010PropOp57
 70
     1
102
RTVSPropertyOp0
 70
     1
102
RTVSPropertyOp1
 70
     1
102
RTVSPropertyOp2
 70
     1
102
RTVSPropertyOp3
 70
     1
102
RTVSPropertyOp4
 70
     1
102
RTVSPropertyOp5
 70
     1
102
RTVSPropertyOp6
 70
     1
102
RTVSPropertyOp7
 70
     1
102
RTVSPropertyOp8
 70
     1
102
RTVSPropertyOp9
 70
     1
102
RTVSPropertyOp10
 70
     1
102
RTVSPropertyOp11
 70
     1
102
RTVSPropertyOp12
 70
     1
102
RTVSPropertyOp13
 70
     1
102
RTVSPropertyOp14
 70
     1
102
RTVSPropertyOp15
 70
     1
102
RTVSPropertyOp16
 70
     1
102
RTVSPropertyOp17
 70
     1
102
RTVSPropertyOp18
 70
     1
102
RTVSPropertyOp19
 70
     1
102
RTVSPropertyOp20
 70
     1
102
RTVSPropertyOp21
 70
     1
102
RTVSPropertyOp22
 70
     1
102
RTVSPropertyOp23
 70
     1
102
RTVSPropertyOp24
 70
     1
102
RTVSPropertyOp25
 70
     1
102
RTVSPropertyOp26
 70
     1
102
RTVSPropertyOp27
 70
     1
102
RTVSPropertyOp28
 70
     1
102
RTVSPropertyOp29
 70
     1
102
RTVSPropertyOp30
 70
     1
102
RTVSPropertyOp31
 70
     1
102
RTVSPropertyOp32
 70
     1
102
RTVSPropertyOp33
 70
     1
102
RTVSPropertyOp34
 70
     1
102
RTVSPropertyOp35
 70
     1
102
RTVSPropertyOp36
 70
     1
102
RTVSPropertyOp37
 70
     1
102
RTVSPropertyOp38
 70
     1
102
RTVSPropertyOp39
 70
     1
102
RTVSPropertyOp40
 70
     1
102
RTVSPropertyOp41
 70
     1
102
RTVSPropertyOp42
 70
     1
102
RTVSPropertyOp43
 70
     1
102
RTVSPropertyOp44
 70
     1
102
RTVSPropertyOp45
 70
     1
102
RTVSPropertyOp46
 70
     1
102
RTVSPropertyOp47
 70
     1
102
RTVSPropertyOp48
 70
     1
102
RTVSPropertyOp49
 70
     1
102
RTVSPropertyOp50
 70
     1
102
RTVSPropertyOp51
 70
     0
102
RTVSPropertyOp52
 70
     0
102
RTVSPropertyOp53
 70
     1
102
RTVSPropertyOp54
 70
     1
102
RTVSPropertyOp55
 70
     1
102
RTVSPropertyOp56
 70
     1
102
RTVSPropertyOp57
 70
     1
102
RTVSPropertyOp58
 70
     1
102
RTVSPropertyOp59
 70
     1
102
RTVSPropertyOp60
 70
     1
102
RTVSPropertyOp61
 70
     1
102
RTVSPropertyOp62
 70
     1
  0
XRECORD
  5
7A95
102
{ACAD_REACTORS
330
7A94
102
}
330
7A94
100
AcDbXrecord
280
     1
102
RTVSPost2010Prop28
280
     0
102
RTVSPost2010PropOp28
 70
     1
102
RTVSPost2010Prop29
280
     1
102
RTVSPost2010PropOp29
 70
     1
102
RTVSPost2010Prop30
280
     1
102
RTVSPost2010PropOp30
 70
     1
102
RTVSPost2010Prop31
280
     0
102
RTVSPost2010PropOp31
 70
     1
102
RTVSPost2010Prop32
280
     0
102
RTVSPost2010PropOp32
 70
     1
102
RTVSPost2010Prop33
280
     0
102
RTVSPost2010PropOp33
 70
     1
102
RTVSPost2010Prop34
280
     0
102
RTVSPost2010PropOp34
 70
     1
102
RTVSPost2010Prop35
280
     0
102
RTVSPost2010PropOp35
 70
     1
102
RTVSPost2010Prop36
280
     0
102
RTVSPost2010PropOp36
 70
     1
102
RTVSPost2010Prop37
 90
       50
102
RTVSPost2010PropOp37
 70
     1
102
RTVSPost2010Prop38
140
0.0
102
RTVSPost2010PropOp38
 70
     1
102
RTVSPost2010Prop39
140
1.0
102
RTVSPost2010PropOp39
 70
     1
102
RTVSPost2010Prop40
 90
        0
102
RTVSPost2010PropOp40
 70
     1
102
RTVSPost2010Prop41ColorIndex
 90
       18
102
RTVSPost2010Prop41ColorRGB
 90
        0
102
RTVSPost2010PropOp41
 70
     1
102
RTVSPost2010Prop42
 90
       50
102
RTVSPost2010PropOp42
 70
     1
102
RTVSPost2010Prop43
 90
        3
102
RTVSPost2010PropOp43
 70
     1
102
RTVSPost2010Prop44ColorIndex
 90
        5
102
RTVSPost2010Prop44ColorRGB
 90
      255
102
RTVSPost2010PropOp44
 70
     1
102
RTVSPost2010Prop45
280
     0
102
RTVSPost2010PropOp45
 70
     1
102
RTVSPost2010Prop46
 90
       50
102
RTVSPost2010PropOp46
 70
     1
102
RTVSPost2010Prop47
 90
       50
102
RTVSPost2010PropOp47
 70
     1
102
RTVSPost2010Prop48
 90
       50
102
RTVSPost2010PropOp48
 70
     1
102
RTVSPost2010Prop49
280
     0
102
RTVSPost2010PropOp49
 70
     1
102
RTVSPost2010Prop50
 90
       50
102
RTVSPost2010PropOp50
 70
     1
102
RTVSPost2010Prop51ColorIndex
 90
      256
102
RTVSPost2010Prop51ColorRGB
 90
-16777216
102
RTVSPost2010PropOp51
 70
     0
102
RTVSPost2010Prop52
140
1.0
102
RTVSPost2010PropOp52
 70
     0
102
RTVSPost2010Prop53
 90
        2
102
RTVSPost2010PropOp53
 70
     1
102
RTVSPost2010Prop54
  1
strokes_ogs.tif
102
RTVSPost2010PropOp54
 70
     1
102
RTVSPost2010Prop55
280
     0
102
RTVSPost2010PropOp55
 70
     1
102
RTVSPost2010Prop56
140
1.0
102
RTVSPost2010PropOp56
 70
     1
102
RTVSPost2010Prop57
140
1.0
102
RTVSPost2010PropOp57
 70
     1
102
RTVSPropertyOp0
 70
     1
102
RTVSPropertyOp1
 70
     1
102
RTVSPropertyOp2
 70
     1
102
RTVSPropertyOp3
 70
     1
102
RTVSPropertyOp4
 70
     1
102
RTVSPropertyOp5
 70
     1
102
RTVSPropertyOp6
 70
     1
102
RTVSPropertyOp7
 70
     1
102
RTVSPropertyOp8
 70
     1
102
RTVSPropertyOp9
 70
     1
102
RTVSPropertyOp10
 70
     1
102
RTVSPropertyOp11
 70
     1
102
RTVSPropertyOp12
 70
     1
102
RTVSPropertyOp13
 70
     1
102
RTVSPropertyOp14
 70
     1
102
RTVSPropertyOp15
 70
     1
102
RTVSPropertyOp16
 70
     1
102
RTVSPropertyOp17
 70
     1
102
RTVSPropertyOp18
 70
     1
102
RTVSPropertyOp19
 70
     1
102
RTVSPropertyOp20
 70
     1
102
RTVSPropertyOp21
 70
     1
102
RTVSPropertyOp22
 70
     1
102
RTVSPropertyOp23
 70
     1
102
RTVSPropertyOp24
 70
     1
102
RTVSPropertyOp25
 70
     1
102
RTVSPropertyOp26
 70
     1
102
RTVSPropertyOp27
 70
     1
102
RTVSPropertyOp28
 70
     1
102
RTVSPropertyOp29
 70
     1
102
RTVSPropertyOp30
 70
     1
102
RTVSPropertyOp31
 70
     1
102
RTVSPropertyOp32
 70
     1
102
RTVSPropertyOp33
 70
     1
102
RTVSPropertyOp34
 70
     1
102
RTVSPropertyOp35
 70
     1
102
RTVSPropertyOp36
 70
     1
102
RTVSPropertyOp37
 70
     1
102
RTVSPropertyOp38
 70
     1
102
RTVSPropertyOp39
 70
     1
102
RTVSPropertyOp40
 70
     1
102
RTVSPropertyOp41
 70
     1
102
RTVSPropertyOp42
 70
     1
102
RTVSPropertyOp43
 70
     1
102
RTVSPropertyOp44
 70
     1
102
RTVSPropertyOp45
 70
     1
102
RTVSPropertyOp46
 70
     1
102
RTVSPropertyOp47
 70
     1
102
RTVSPropertyOp48
 70
     1
102
RTVSPropertyOp49
 70
     1
102
RTVSPropertyOp50
 70
     1
102
RTVSPropertyOp51
 70
     0
102
RTVSPropertyOp52
 70
     0
102
RTVSPropertyOp53
 70
     1
102
RTVSPropertyOp54
 70
     1
102
RTVSPropertyOp55
 70
     1
102
RTVSPropertyOp56
 70
     1
102
RTVSPropertyOp57
 70
     1
102
RTVSPropertyOp58
 70
     1
102
RTVSPropertyOp59
 70
     1
102
RTVSPropertyOp60
 70
     1
102
RTVSPropertyOp61
 70
     1
102
RTVSPropertyOp62
 70
     1
  0
XRECORD
  5
7A9D
102
{ACAD_REACTORS
330
7A9C
102
}
330
7A9C
100
AcDbXrecord
280
     1
102
RTVSPost2010Prop28
280
     0
102
RTVSPost2010PropOp28
 70
     1
102
RTVSPost2010Prop29
280
     1
102
RTVSPost2010PropOp29
 70
     1
102
RTVSPost2010Prop30
280
     1
102
RTVSPost2010PropOp30
 70
     1
102
RTVSPost2010Prop31
280
     0
102
RTVSPost2010PropOp31
 70
     1
102
RTVSPost2010Prop32
280
     0
102
RTVSPost2010PropOp32
 70
     1
102
RTVSPost2010Prop33
280
     0
102
RTVSPost2010PropOp33
 70
     1
102
RTVSPost2010Prop34
280
     0
102
RTVSPost2010PropOp34
 70
     1
102
RTVSPost2010Prop35
280
     0
102
RTVSPost2010PropOp35
 70
     1
102
RTVSPost2010Prop36
280
     0
102
RTVSPost2010PropOp36
 70
     1
102
RTVSPost2010Prop37
 90
       50
102
RTVSPost2010PropOp37
 70
     1
102
RTVSPost2010Prop38
140
0.0
102
RTVSPost2010PropOp38
 70
     1
102
RTVSPost2010Prop39
140
1.0
102
RTVSPost2010PropOp39
 70
     1
102
RTVSPost2010Prop40
 90
        0
102
RTVSPost2010PropOp40
 70
     1
102
RTVSPost2010Prop41ColorIndex
 90
       18
102
RTVSPost2010Prop41ColorRGB
 90
        0
102
RTVSPost2010PropOp41
 70
     1
102
RTVSPost2010Prop42
 90
       50
102
RTVSPost2010PropOp42
 70
     1
102
RTVSPost2010Prop43
 90
        3
102
RTVSPost2010PropOp43
 70
     1
102
RTVSPost2010Prop44ColorIndex
 90
        5
102
RTVSPost2010Prop44ColorRGB
 90
      255
102
RTVSPost2010PropOp44
 70
     1
102
RTVSPost2010Prop45
280
     0
102
RTVSPost2010PropOp45
 70
     1
102
RTVSPost2010Prop46
 90
       50
102
RTVSPost2010PropOp46
 70
     1
102
RTVSPost2010Prop47
 90
       50
102
RTVSPost2010PropOp47
 70
     1
102
RTVSPost2010Prop48
 90
       50
102
RTVSPost2010PropOp48
 70
     1
102
RTVSPost2010Prop49
280
     0
102
RTVSPost2010PropOp49
 70
     1
102
RTVSPost2010Prop50
 90
       50
102
RTVSPost2010PropOp50
 70
     1
102
RTVSPost2010Prop51ColorIndex
 90
      256
102
RTVSPost2010Prop51ColorRGB
 90
-16777216
102
RTVSPost2010PropOp51
 70
     0
102
RTVSPost2010Prop52
140
1.0
102
RTVSPost2010PropOp52
 70
     0
102
RTVSPost2010Prop53
 90
        2
102
RTVSPost2010PropOp53
 70
     1
102
RTVSPost2010Prop54
  1
strokes_ogs.tif
102
RTVSPost2010PropOp54
 70
     1
102
RTVSPost2010Prop55
280
     0
102
RTVSPost2010PropOp55
 70
     1
102
RTVSPost2010Prop56
140
1.0
102
RTVSPost2010PropOp56
 70
     1
102
RTVSPost2010Prop57
140
1.0
102
RTVSPost2010PropOp57
 70
     1
102
RTVSPropertyOp0
 70
     1
102
RTVSPropertyOp1
 70
     1
102
RTVSPropertyOp2
 70
     1
102
RTVSPropertyOp3
 70
     1
102
RTVSPropertyOp4
 70
     1
102
RTVSPropertyOp5
 70
     1
102
RTVSPropertyOp6
 70
     1
102
RTVSPropertyOp7
 70
     1
102
RTVSPropertyOp8
 70
     1
102
RTVSPropertyOp9
 70
     1
102
RTVSPropertyOp10
 70
     1
102
RTVSPropertyOp11
 70
     1
102
RTVSPropertyOp12
 70
     1
102
RTVSPropertyOp13
 70
     1
102
RTVSPropertyOp14
 70
     1
102
RTVSPropertyOp15
 70
     1
102
RTVSPropertyOp16
 70
     1
102
RTVSPropertyOp17
 70
     1
102
RTVSPropertyOp18
 70
     1
102
RTVSPropertyOp19
 70
     1
102
RTVSPropertyOp20
 70
     1
102
RTVSPropertyOp21
 70
     1
102
RTVSPropertyOp22
 70
     1
102
RTVSPropertyOp23
 70
     1
102
RTVSPropertyOp24
 70
     1
102
RTVSPropertyOp25
 70
     1
102
RTVSPropertyOp26
 70
     1
102
RTVSPropertyOp27
 70
     1
102
RTVSPropertyOp28
 70
     1
102
RTVSPropertyOp29
 70
     1
102
RTVSPropertyOp30
 70
     1
102
RTVSPropertyOp31
 70
     1
102
RTVSPropertyOp32
 70
     1
102
RTVSPropertyOp33
 70
     1
102
RTVSPropertyOp34
 70
     1
102
RTVSPropertyOp35
 70
     1
102
RTVSPropertyOp36
 70
     1
102
RTVSPropertyOp37
 70
     1
102
RTVSPropertyOp38
 70
     1
102
RTVSPropertyOp39
 70
     1
102
RTVSPropertyOp40
 70
     1
102
RTVSPropertyOp41
 70
     1
102
RTVSPropertyOp42
 70
     1
102
RTVSPropertyOp43
 70
     1
102
RTVSPropertyOp44
 70
     1
102
RTVSPropertyOp45
 70
     1
102
RTVSPropertyOp46
 70
     1
102
RTVSPropertyOp47
 70
     1
102
RTVSPropertyOp48
 70
     1
102
RTVSPropertyOp49
 70
     1
102
RTVSPropertyOp50
 70
     1
102
RTVSPropertyOp51
 70
     0
102
RTVSPropertyOp52
 70
     0
102
RTVSPropertyOp53
 70
     1
102
RTVSPropertyOp54
 70
     1
102
RTVSPropertyOp55
 70
     1
102
RTVSPropertyOp56
 70
     1
102
RTVSPropertyOp57
 70
     1
102
RTVSPropertyOp58
 70
     1
102
RTVSPropertyOp59
 70
     1
102
RTVSPropertyOp60
 70
     1
102
RTVSPropertyOp61
 70
     1
102
RTVSPropertyOp62
 70
     1
  0
XRECORD
  5
7A8F
102
{ACAD_REACTORS
330
7A8E
102
}
330
7A8E
100
AcDbXrecord
280
     1
102
RTVSPost2010Prop28
280
     0
102
RTVSPost2010PropOp28
 70
     1
102
RTVSPost2010Prop29
280
     1
102
RTVSPost2010PropOp29
 70
     1
102
RTVSPost2010Prop30
280
     1
102
RTVSPost2010PropOp30
 70
     1
102
RTVSPost2010Prop31
280
     0
102
RTVSPost2010PropOp31
 70
     1
102
RTVSPost2010Prop32
280
     0
102
RTVSPost2010PropOp32
 70
     1
102
RTVSPost2010Prop33
280
     0
102
RTVSPost2010PropOp33
 70
     1
102
RTVSPost2010Prop34
280
     0
102
RTVSPost2010PropOp34
 70
     1
102
RTVSPost2010Prop35
280
     0
102
RTVSPost2010PropOp35
 70
     1
102
RTVSPost2010Prop36
280
     0
102
RTVSPost2010PropOp36
 70
     1
102
RTVSPost2010Prop37
 90
       50
102
RTVSPost2010PropOp37
 70
     1
102
RTVSPost2010Prop38
140
0.0
102
RTVSPost2010PropOp38
 70
     1
102
RTVSPost2010Prop39
140
1.0
102
RTVSPost2010PropOp39
 70
     1
102
RTVSPost2010Prop40
 90
        0
102
RTVSPost2010PropOp40
 70
     1
102
RTVSPost2010Prop41ColorIndex
 90
       18
102
RTVSPost2010Prop41ColorRGB
 90
        0
102
RTVSPost2010PropOp41
 70
     1
102
RTVSPost2010Prop42
 90
       50
102
RTVSPost2010PropOp42
 70
     1
102
RTVSPost2010Prop43
 90
        3
102
RTVSPost2010PropOp43
 70
     1
102
RTVSPost2010Prop44ColorIndex
 90
        5
102
RTVSPost2010Prop44ColorRGB
 90
      255
102
RTVSPost2010PropOp44
 70
     1
102
RTVSPost2010Prop45
280
     0
102
RTVSPost2010PropOp45
 70
     1
102
RTVSPost2010Prop46
 90
       50
102
RTVSPost2010PropOp46
 70
     1
102
RTVSPost2010Prop47
 90
       50
102
RTVSPost2010PropOp47
 70
     1
102
RTVSPost2010Prop48
 90
       50
102
RTVSPost2010PropOp48
 70
     1
102
RTVSPost2010Prop49
280
     0
102
RTVSPost2010PropOp49
 70
     1
102
RTVSPost2010Prop50
 90
       50
102
RTVSPost2010PropOp50
 70
     1
102
RTVSPost2010Prop51ColorIndex
 90
      256
102
RTVSPost2010Prop51ColorRGB
 90
-16777216
102
RTVSPost2010PropOp51
 70
     0
102
RTVSPost2010Prop52
140
1.0
102
RTVSPost2010PropOp52
 70
     0
102
RTVSPost2010Prop53
 90
        2
102
RTVSPost2010PropOp53
 70
     1
102
RTVSPost2010Prop54
  1
strokes_ogs.tif
102
RTVSPost2010PropOp54
 70
     1
102
RTVSPost2010Prop55
280
     0
102
RTVSPost2010PropOp55
 70
     1
102
RTVSPost2010Prop56
140
1.0
102
RTVSPost2010PropOp56
 70
     1
102
RTVSPost2010Prop57
140
1.0
102
RTVSPost2010PropOp57
 70
     1
102
RTVSPropertyOp0
 70
     1
102
RTVSPropertyOp1
 70
     1
102
RTVSPropertyOp2
 70
     1
102
RTVSPropertyOp3
 70
     1
102
RTVSPropertyOp4
 70
     1
102
RTVSPropertyOp5
 70
     1
102
RTVSPropertyOp6
 70
     1
102
RTVSPropertyOp7
 70
     1
102
RTVSPropertyOp8
 70
     1
102
RTVSPropertyOp9
 70
     1
102
RTVSPropertyOp10
 70
     1
102
RTVSPropertyOp11
 70
     1
102
RTVSPropertyOp12
 70
     1
102
RTVSPropertyOp13
 70
     1
102
RTVSPropertyOp14
 70
     1
102
RTVSPropertyOp15
 70
     1
102
RTVSPropertyOp16
 70
     1
102
RTVSPropertyOp17
 70
     1
102
RTVSPropertyOp18
 70
     1
102
RTVSPropertyOp19
 70
     1
102
RTVSPropertyOp20
 70
     1
102
RTVSPropertyOp21
 70
     1
102
RTVSPropertyOp22
 70
     1
102
RTVSPropertyOp23
 70
     1
102
RTVSPropertyOp24
 70
     1
102
RTVSPropertyOp25
 70
     1
102
RTVSPropertyOp26
 70
     1
102
RTVSPropertyOp27
 70
     1
102
RTVSPropertyOp28
 70
     1
102
RTVSPropertyOp29
 70
     1
102
RTVSPropertyOp30
 70
     1
102
RTVSPropertyOp31
 70
     1
102
RTVSPropertyOp32
 70
     1
102
RTVSPropertyOp33
 70
     1
102
RTVSPropertyOp34
 70
     1
102
RTVSPropertyOp35
 70
     1
102
RTVSPropertyOp36
 70
     1
102
RTVSPropertyOp37
 70
     1
102
RTVSPropertyOp38
 70
     1
102
RTVSPropertyOp39
 70
     1
102
RTVSPropertyOp40
 70
     1
102
RTVSPropertyOp41
 70
     1
102
RTVSPropertyOp42
 70
     1
102
RTVSPropertyOp43
 70
     1
102
RTVSPropertyOp44
 70
     1
102
RTVSPropertyOp45
 70
     1
102
RTVSPropertyOp46
 70
     1
102
RTVSPropertyOp47
 70
     1
102
RTVSPropertyOp48
 70
     1
102
RTVSPropertyOp49
 70
     1
102
RTVSPropertyOp50
 70
     1
102
RTVSPropertyOp51
 70
     0
102
RTVSPropertyOp52
 70
     0
102
RTVSPropertyOp53
 70
     1
102
RTVSPropertyOp54
 70
     1
102
RTVSPropertyOp55
 70
     1
102
RTVSPropertyOp56
 70
     1
102
RTVSPropertyOp57
 70
     1
102
RTVSPropertyOp58
 70
     1
102
RTVSPropertyOp59
 70
     1
102
RTVSPropertyOp60
 70
     1
102
RTVSPropertyOp61
 70
     1
102
RTVSPropertyOp62
 70
     1
  0
XRECORD
  5
7A93
102
{ACAD_REACTORS
330
7A92
102
}
330
7A92
100
AcDbXrecord
280
     1
102
RTVSPost2010Prop28
280
     0
102
RTVSPost2010PropOp28
 70
     1
102
RTVSPost2010Prop29
280
     1
102
RTVSPost2010PropOp29
 70
     1
102
RTVSPost2010Prop30
280
     1
102
RTVSPost2010PropOp30
 70
     1
102
RTVSPost2010Prop31
280
     0
102
RTVSPost2010PropOp31
 70
     1
102
RTVSPost2010Prop32
280
     0
102
RTVSPost2010PropOp32
 70
     1
102
RTVSPost2010Prop33
280
     0
102
RTVSPost2010PropOp33
 70
     1
102
RTVSPost2010Prop34
280
     0
102
RTVSPost2010PropOp34
 70
     1
102
RTVSPost2010Prop35
280
     0
102
RTVSPost2010PropOp35
 70
     1
102
RTVSPost2010Prop36
280
     0
102
RTVSPost2010PropOp36
 70
     1
102
RTVSPost2010Prop37
 90
       50
102
RTVSPost2010PropOp37
 70
     1
102
RTVSPost2010Prop38
140
0.0
102
RTVSPost2010PropOp38
 70
     1
102
RTVSPost2010Prop39
140
1.0
102
RTVSPost2010PropOp39
 70
     1
102
RTVSPost2010Prop40
 90
        0
102
RTVSPost2010PropOp40
 70
     1
102
RTVSPost2010Prop41ColorIndex
 90
       18
102
RTVSPost2010Prop41ColorRGB
 90
        0
102
RTVSPost2010PropOp41
 70
     1
102
RTVSPost2010Prop42
 90
       50
102
RTVSPost2010PropOp42
 70
     1
102
RTVSPost2010Prop43
 90
        3
102
RTVSPost2010PropOp43
 70
     1
102
RTVSPost2010Prop44ColorIndex
 90
        5
102
RTVSPost2010Prop44ColorRGB
 90
      255
102
RTVSPost2010PropOp44
 70
     1
102
RTVSPost2010Prop45
280
     0
102
RTVSPost2010PropOp45
 70
     1
102
RTVSPost2010Prop46
 90
       50
102
RTVSPost2010PropOp46
 70
     1
102
RTVSPost2010Prop47
 90
       50
102
RTVSPost2010PropOp47
 70
     1
102
RTVSPost2010Prop48
 90
       50
102
RTVSPost2010PropOp48
 70
     1
102
RTVSPost2010Prop49
280
     0
102
RTVSPost2010PropOp49
 70
     1
102
RTVSPost2010Prop50
 90
       50
102
RTVSPost2010PropOp50
 70
     1
102
RTVSPost2010Prop51ColorIndex
 90
      256
102
RTVSPost2010Prop51ColorRGB
 90
-16777216
102
RTVSPost2010PropOp51
 70
     0
102
RTVSPost2010Prop52
140
1.0
102
RTVSPost2010PropOp52
 70
     0
102
RTVSPost2010Prop53
 90
        2
102
RTVSPost2010PropOp53
 70
     1
102
RTVSPost2010Prop54
  1
strokes_ogs.tif
102
RTVSPost2010PropOp54
 70
     1
102
RTVSPost2010Prop55
280
     0
102
RTVSPost2010PropOp55
 70
     1
102
RTVSPost2010Prop56
140
1.0
102
RTVSPost2010PropOp56
 70
     1
102
RTVSPost2010Prop57
140
1.0
102
RTVSPost2010PropOp57
 70
     1
102
RTVSPropertyOp0
 70
     1
102
RTVSPropertyOp1
 70
     1
102
RTVSPropertyOp2
 70
     1
102
RTVSPropertyOp3
 70
     1
102
RTVSPropertyOp4
 70
     1
102
RTVSPropertyOp5
 70
     1
102
RTVSPropertyOp6
 70
     1
102
RTVSPropertyOp7
 70
     1
102
RTVSPropertyOp8
 70
     1
102
RTVSPropertyOp9
 70
     1
102
RTVSPropertyOp10
 70
     1
102
RTVSPropertyOp11
 70
     1
102
RTVSPropertyOp12
 70
     1
102
RTVSPropertyOp13
 70
     1
102
RTVSPropertyOp14
 70
     1
102
RTVSPropertyOp15
 70
     1
102
RTVSPropertyOp16
 70
     1
102
RTVSPropertyOp17
 70
     1
102
RTVSPropertyOp18
 70
     1
102
RTVSPropertyOp19
 70
     1
102
RTVSPropertyOp20
 70
     1
102
RTVSPropertyOp21
 70
     1
102
RTVSPropertyOp22
 70
     1
102
RTVSPropertyOp23
 70
     1
102
RTVSPropertyOp24
 70
     1
102
RTVSPropertyOp25
 70
     1
102
RTVSPropertyOp26
 70
     1
102
RTVSPropertyOp27
 70
     1
102
RTVSPropertyOp28
 70
     1
102
RTVSPropertyOp29
 70
     1
102
RTVSPropertyOp30
 70
     1
102
RTVSPropertyOp31
 70
     1
102
RTVSPropertyOp32
 70
     1
102
RTVSPropertyOp33
 70
     1
102
RTVSPropertyOp34
 70
     1
102
RTVSPropertyOp35
 70
     1
102
RTVSPropertyOp36
 70
     1
102
RTVSPropertyOp37
 70
     1
102
RTVSPropertyOp38
 70
     1
102
RTVSPropertyOp39
 70
     1
102
RTVSPropertyOp40
 70
     1
102
RTVSPropertyOp41
 70
     1
102
RTVSPropertyOp42
 70
     1
102
RTVSPropertyOp43
 70
     1
102
RTVSPropertyOp44
 70
     1
102
RTVSPropertyOp45
 70
     1
102
RTVSPropertyOp46
 70
     1
102
RTVSPropertyOp47
 70
     1
102
RTVSPropertyOp48
 70
     1
102
RTVSPropertyOp49
 70
     1
102
RTVSPropertyOp50
 70
     1
102
RTVSPropertyOp51
 70
     0
102
RTVSPropertyOp52
 70
     0
102
RTVSPropertyOp53
 70
     1
102
RTVSPropertyOp54
 70
     1
102
RTVSPropertyOp55
 70
     1
102
RTVSPropertyOp56
 70
     1
102
RTVSPropertyOp57
 70
     1
102
RTVSPropertyOp58
 70
     1
102
RTVSPropertyOp59
 70
     1
102
RTVSPropertyOp60
 70
     1
102
RTVSPropertyOp61
 70
     1
102
RTVSPropertyOp62
 70
     1
  0
XRECORD
  5
7AB3
102
{ACAD_REACTORS
330
7AB2
102
}
330
7AB2
100
AcDbXrecord
280
     1
102
RTVSPost2010Prop28
280
     0
102
RTVSPost2010PropOp28
 70
     0
102
RTVSPost2010Prop29
280
     1
102
RTVSPost2010PropOp29
 70
     0
102
RTVSPost2010Prop30
280
     1
102
RTVSPost2010PropOp30
 70
     0
102
RTVSPost2010Prop31
280
     0
102
RTVSPost2010PropOp31
 70
     0
102
RTVSPost2010Prop32
280
     0
102
RTVSPost2010PropOp32
 70
     0
102
RTVSPost2010Prop33
280
     0
102
RTVSPost2010PropOp33
 70
     0
102
RTVSPost2010Prop34
280
     0
102
RTVSPost2010PropOp34
 70
     0
102
RTVSPost2010Prop35
280
     0
102
RTVSPost2010PropOp35
 70
     0
102
RTVSPost2010Prop36
280
     0
102
RTVSPost2010PropOp36
 70
     0
102
RTVSPost2010Prop37
 90
       50
102
RTVSPost2010PropOp37
 70
     0
102
RTVSPost2010Prop38
140
0.0
102
RTVSPost2010PropOp38
 70
     0
102
RTVSPost2010Prop39
140
1.0
102
RTVSPost2010PropOp39
 70
     0
102
RTVSPost2010Prop40
 90
        0
102
RTVSPost2010PropOp40
 70
     0
102
RTVSPost2010Prop41ColorIndex
 90
       18
102
RTVSPost2010Prop41ColorRGB
 90
        0
102
RTVSPost2010PropOp41
 70
     0
102
RTVSPost2010Prop42
 90
       50
102
RTVSPost2010PropOp42
 70
     0
102
RTVSPost2010Prop43
 90
        3
102
RTVSPost2010PropOp43
 70
     0
102
RTVSPost2010Prop44ColorIndex
 90
        5
102
RTVSPost2010Prop44ColorRGB
 90
      255
102
RTVSPost2010PropOp44
 70
     0
102
RTVSPost2010Prop45
280
     0
102
RTVSPost2010PropOp45
 70
     0
102
RTVSPost2010Prop46
 90
       50
102
RTVSPost2010PropOp46
 70
     0
102
RTVSPost2010Prop47
 90
       50
102
RTVSPost2010PropOp47
 70
     0
102
RTVSPost2010Prop48
 90
       50
102
RTVSPost2010PropOp48
 70
     0
102
RTVSPost2010Prop49
280
     0
102
RTVSPost2010PropOp49
 70
     0
102
RTVSPost2010Prop50
 90
       50
102
RTVSPost2010PropOp50
 70
     0
102
RTVSPost2010Prop51ColorIndex
 90
      256
102
RTVSPost2010Prop51ColorRGB
 90
-16777216
102
RTVSPost2010PropOp51
 70
     0
102
RTVSPost2010Prop52
140
1.0
102
RTVSPost2010PropOp52
 70
     0
102
RTVSPost2010Prop53
 90
        2
102
RTVSPost2010PropOp53
 70
     0
102
RTVSPost2010Prop54
  1
strokes_ogs.tif
102
RTVSPost2010PropOp54
 70
     0
102
RTVSPost2010Prop55
280
     0
102
RTVSPost2010PropOp55
 70
     0
102
RTVSPost2010Prop56
140
1.0
102
RTVSPost2010PropOp56
 70
     0
102
RTVSPost2010Prop57
140
1.0
102
RTVSPost2010PropOp57
 70
     0
102
RTVSPropertyOp0
 70
     0
102
RTVSPropertyOp1
 70
     0
102
RTVSPropertyOp2
 70
     0
102
RTVSPropertyOp3
 70
     0
102
RTVSPropertyOp4
 70
     0
102
RTVSPropertyOp5
 70
     0
102
RTVSPropertyOp6
 70
     0
102
RTVSPropertyOp7
 70
     0
102
RTVSPropertyOp8
 70
     0
102
RTVSPropertyOp9
 70
     0
102
RTVSPropertyOp10
 70
     0
102
RTVSPropertyOp11
 70
     0
102
RTVSPropertyOp12
 70
     0
102
RTVSPropertyOp13
 70
     0
102
RTVSPropertyOp14
 70
     2
102
RTVSPropertyOp15
 70
     0
102
RTVSPropertyOp16
 70
     0
102
RTVSPropertyOp17
 70
     0
102
RTVSPropertyOp18
 70
     0
102
RTVSPropertyOp19
 70
     0
102
RTVSPropertyOp20
 70
     0
102
RTVSPropertyOp21
 70
     0
102
RTVSPropertyOp22
 70
     0
102
RTVSPropertyOp23
 70
     0
102
RTVSPropertyOp24
 70
     0
102
RTVSPropertyOp25
 70
     0
102
RTVSPropertyOp26
 70
     0
102
RTVSPropertyOp27
 70
     0
102
RTVSPropertyOp28
 70
     0
102
RTVSPropertyOp29
 70
     0
102
RTVSPropertyOp30
 70
     0
102
RTVSPropertyOp31
 70
     0
102
RTVSPropertyOp32
 70
     0
102
RTVSPropertyOp33
 70
     0
102
RTVSPropertyOp34
 70
     0
102
RTVSPropertyOp35
 70
     0
102
RTVSPropertyOp36
 70
     0
102
RTVSPropertyOp37
 70
     0
102
RTVSPropertyOp38
 70
     0
102
RTVSPropertyOp39
 70
     0
102
RTVSPropertyOp40
 70
     0
102
RTVSPropertyOp41
 70
     0
102
RTVSPropertyOp42
 70
     0
102
RTVSPropertyOp43
 70
     0
102
RTVSPropertyOp44
 70
     0
102
RTVSPropertyOp45
 70
     0
102
RTVSPropertyOp46
 70
     0
102
RTVSPropertyOp47
 70
     0
102
RTVSPropertyOp48
 70
     0
102
RTVSPropertyOp49
 70
     0
102
RTVSPropertyOp50
 70
     0
102
RTVSPropertyOp51
 70
     0
102
RTVSPropertyOp52
 70
     0
102
RTVSPropertyOp53
 70
     0
102
RTVSPropertyOp54
 70
     0
102
RTVSPropertyOp55
 70
     0
102
RTVSPropertyOp56
 70
     0
102
RTVSPropertyOp57
 70
     0
102
RTVSPropertyOp58
 70
     0
102
RTVSPropertyOp59
 70
     0
102
RTVSPropertyOp60
 70
     0
102
RTVSPropertyOp61
 70
     0
102
RTVSPropertyOp62
 70
     0
  0
XRECORD
  5
7A9B
102
{ACAD_REACTORS
330
7A9A
102
}
330
7A9A
100
AcDbXrecord
280
     1
102
RTVSPost2010Prop28
280
     0
102
RTVSPost2010PropOp28
 70
     1
102
RTVSPost2010Prop29
280
     1
102
RTVSPost2010PropOp29
 70
     1
102
RTVSPost2010Prop30
280
     1
102
RTVSPost2010PropOp30
 70
     1
102
RTVSPost2010Prop31
280
     0
102
RTVSPost2010PropOp31
 70
     1
102
RTVSPost2010Prop32
280
     0
102
RTVSPost2010PropOp32
 70
     1
102
RTVSPost2010Prop33
280
     0
102
RTVSPost2010PropOp33
 70
     1
102
RTVSPost2010Prop34
280
     0
102
RTVSPost2010PropOp34
 70
     1
102
RTVSPost2010Prop35
280
     0
102
RTVSPost2010PropOp35
 70
     1
102
RTVSPost2010Prop36
280
     0
102
RTVSPost2010PropOp36
 70
     1
102
RTVSPost2010Prop37
 90
       50
102
RTVSPost2010PropOp37
 70
     1
102
RTVSPost2010Prop38
140
0.0
102
RTVSPost2010PropOp38
 70
     1
102
RTVSPost2010Prop39
140
1.0
102
RTVSPost2010PropOp39
 70
     1
102
RTVSPost2010Prop40
 90
        0
102
RTVSPost2010PropOp40
 70
     1
102
RTVSPost2010Prop41ColorIndex
 90
       18
102
RTVSPost2010Prop41ColorRGB
 90
        0
102
RTVSPost2010PropOp41
 70
     1
102
RTVSPost2010Prop42
 90
       50
102
RTVSPost2010PropOp42
 70
     1
102
RTVSPost2010Prop43
 90
        3
102
RTVSPost2010PropOp43
 70
     1
102
RTVSPost2010Prop44ColorIndex
 90
        5
102
RTVSPost2010Prop44ColorRGB
 90
      255
102
RTVSPost2010PropOp44
 70
     1
102
RTVSPost2010Prop45
280
     0
102
RTVSPost2010PropOp45
 70
     1
102
RTVSPost2010Prop46
 90
       50
102
RTVSPost2010PropOp46
 70
     1
102
RTVSPost2010Prop47
 90
       50
102
RTVSPost2010PropOp47
 70
     1
102
RTVSPost2010Prop48
 90
       50
102
RTVSPost2010PropOp48
 70
     1
102
RTVSPost2010Prop49
280
     0
102
RTVSPost2010PropOp49
 70
     1
102
RTVSPost2010Prop50
 90
       50
102
RTVSPost2010PropOp50
 70
     1
102
RTVSPost2010Prop51ColorIndex
 90
      256
102
RTVSPost2010Prop51ColorRGB
 90
-16777216
102
RTVSPost2010PropOp51
 70
     0
102
RTVSPost2010Prop52
140
1.0
102
RTVSPost2010PropOp52
 70
     0
102
RTVSPost2010Prop53
 90
        2
102
RTVSPost2010PropOp53
 70
     1
102
RTVSPost2010Prop54
  1
strokes_ogs.tif
102
RTVSPost2010PropOp54
 70
     1
102
RTVSPost2010Prop55
280
     0
102
RTVSPost2010PropOp55
 70
     1
102
RTVSPost2010Prop56
140
1.0
102
RTVSPost2010PropOp56
 70
     1
102
RTVSPost2010Prop57
140
1.0
102
RTVSPost2010PropOp57
 70
     1
102
RTVSPropertyOp0
 70
     1
102
RTVSPropertyOp1
 70
     1
102
RTVSPropertyOp2
 70
     1
102
RTVSPropertyOp3
 70
     1
102
RTVSPropertyOp4
 70
     1
102
RTVSPropertyOp5
 70
     1
102
RTVSPropertyOp6
 70
     1
102
RTVSPropertyOp7
 70
     1
102
RTVSPropertyOp8
 70
     1
102
RTVSPropertyOp9
 70
     1
102
RTVSPropertyOp10
 70
     1
102
RTVSPropertyOp11
 70
     1
102
RTVSPropertyOp12
 70
     1
102
RTVSPropertyOp13
 70
     1
102
RTVSPropertyOp14
 70
     1
102
RTVSPropertyOp15
 70
     1
102
RTVSPropertyOp16
 70
     1
102
RTVSPropertyOp17
 70
     1
102
RTVSPropertyOp18
 70
     1
102
RTVSPropertyOp19
 70
     1
102
RTVSPropertyOp20
 70
     1
102
RTVSPropertyOp21
 70
     1
102
RTVSPropertyOp22
 70
     1
102
RTVSPropertyOp23
 70
     1
102
RTVSPropertyOp24
 70
     1
102
RTVSPropertyOp25
 70
     1
102
RTVSPropertyOp26
 70
     1
102
RTVSPropertyOp27
 70
     1
102
RTVSPropertyOp28
 70
     1
102
RTVSPropertyOp29
 70
     1
102
RTVSPropertyOp30
 70
     1
102
RTVSPropertyOp31
 70
     1
102
RTVSPropertyOp32
 70
     1
102
RTVSPropertyOp33
 70
     1
102
RTVSPropertyOp34
 70
     1
102
RTVSPropertyOp35
 70
     1
102
RTVSPropertyOp36
 70
     1
102
RTVSPropertyOp37
 70
     1
102
RTVSPropertyOp38
 70
     1
102
RTVSPropertyOp39
 70
     1
102
RTVSPropertyOp40
 70
     1
102
RTVSPropertyOp41
 70
     1
102
RTVSPropertyOp42
 70
     1
102
RTVSPropertyOp43
 70
     1
102
RTVSPropertyOp44
 70
     1
102
RTVSPropertyOp45
 70
     1
102
RTVSPropertyOp46
 70
     1
102
RTVSPropertyOp47
 70
     1
102
RTVSPropertyOp48
 70
     1
102
RTVSPropertyOp49
 70
     1
102
RTVSPropertyOp50
 70
     1
102
RTVSPropertyOp51
 70
     0
102
RTVSPropertyOp52
 70
     0
102
RTVSPropertyOp53
 70
     1
102
RTVSPropertyOp54
 70
     1
102
RTVSPropertyOp55
 70
     1
102
RTVSPropertyOp56
 70
     1
102
RTVSPropertyOp57
 70
     1
102
RTVSPropertyOp58
 70
     1
102
RTVSPropertyOp59
 70
     1
102
RTVSPropertyOp60
 70
     1
102
RTVSPropertyOp61
 70
     1
102
RTVSPropertyOp62
 70
     1
  0
XRECORD
  5
7A7F
102
{ACAD_REACTORS
330
7A7E
102
}
330
7A7E
100
AcDbXrecord
280
     1
102
RTVSPost2010Prop28
280
     0
102
RTVSPost2010PropOp28
 70
     1
102
RTVSPost2010Prop29
280
     1
102
RTVSPost2010PropOp29
 70
     1
102
RTVSPost2010Prop30
280
     1
102
RTVSPost2010PropOp30
 70
     1
102
RTVSPost2010Prop31
280
     0
102
RTVSPost2010PropOp31
 70
     1
102
RTVSPost2010Prop32
280
     0
102
RTVSPost2010PropOp32
 70
     1
102
RTVSPost2010Prop33
280
     0
102
RTVSPost2010PropOp33
 70
     1
102
RTVSPost2010Prop34
280
     0
102
RTVSPost2010PropOp34
 70
     1
102
RTVSPost2010Prop35
280
     0
102
RTVSPost2010PropOp35
 70
     1
102
RTVSPost2010Prop36
280
     0
102
RTVSPost2010PropOp36
 70
     1
102
RTVSPost2010Prop37
 90
       50
102
RTVSPost2010PropOp37
 70
     1
102
RTVSPost2010Prop38
140
0.0
102
RTVSPost2010PropOp38
 70
     1
102
RTVSPost2010Prop39
140
1.0
102
RTVSPost2010PropOp39
 70
     1
102
RTVSPost2010Prop40
 90
        0
102
RTVSPost2010PropOp40
 70
     1
102
RTVSPost2010Prop41ColorIndex
 90
       18
102
RTVSPost2010Prop41ColorRGB
 90
        0
102
RTVSPost2010PropOp41
 70
     1
102
RTVSPost2010Prop42
 90
       50
102
RTVSPost2010PropOp42
 70
     1
102
RTVSPost2010Prop43
 90
        3
102
RTVSPost2010PropOp43
 70
     1
102
RTVSPost2010Prop44ColorIndex
 90
        5
102
RTVSPost2010Prop44ColorRGB
 90
      255
102
RTVSPost2010PropOp44
 70
     1
102
RTVSPost2010Prop45
280
     0
102
RTVSPost2010PropOp45
 70
     1
102
RTVSPost2010Prop46
 90
       50
102
RTVSPost2010PropOp46
 70
     1
102
RTVSPost2010Prop47
 90
       50
102
RTVSPost2010PropOp47
 70
     1
102
RTVSPost2010Prop48
 90
       50
102
RTVSPost2010PropOp48
 70
     1
102
RTVSPost2010Prop49
280
     0
102
RTVSPost2010PropOp49
 70
     1
102
RTVSPost2010Prop50
 90
       50
102
RTVSPost2010PropOp50
 70
     1
102
RTVSPost2010Prop51ColorIndex
 90
      256
102
RTVSPost2010Prop51ColorRGB
 90
-16777216
102
RTVSPost2010PropOp51
 70
     0
102
RTVSPost2010Prop52
140
1.0
102
RTVSPost2010PropOp52
 70
     0
102
RTVSPost2010Prop53
 90
        2
102
RTVSPost2010PropOp53
 70
     1
102
RTVSPost2010Prop54
  1
strokes_ogs.tif
102
RTVSPost2010PropOp54
 70
     1
102
RTVSPost2010Prop55
280
     0
102
RTVSPost2010PropOp55
 70
     1
102
RTVSPost2010Prop56
140
1.0
102
RTVSPost2010PropOp56
 70
     1
102
RTVSPost2010Prop57
140
1.0
102
RTVSPost2010PropOp57
 70
     1
102
RTVSPropertyOp0
 70
     1
102
RTVSPropertyOp1
 70
     1
102
RTVSPropertyOp2
 70
     1
102
RTVSPropertyOp3
 70
     1
102
RTVSPropertyOp4
 70
     1
102
RTVSPropertyOp5
 70
     1
102
RTVSPropertyOp6
 70
     1
102
RTVSPropertyOp7
 70
     1
102
RTVSPropertyOp8
 70
     1
102
RTVSPropertyOp9
 70
     1
102
RTVSPropertyOp10
 70
     1
102
RTVSPropertyOp11
 70
     1
102
RTVSPropertyOp12
 70
     1
102
RTVSPropertyOp13
 70
     1
102
RTVSPropertyOp14
 70
     1
102
RTVSPropertyOp15
 70
     1
102
RTVSPropertyOp16
 70
     1
102
RTVSPropertyOp17
 70
     1
102
RTVSPropertyOp18
 70
     1
102
RTVSPropertyOp19
 70
     1
102
RTVSPropertyOp20
 70
     1
102
RTVSPropertyOp21
 70
     1
102
RTVSPropertyOp22
 70
     1
102
RTVSPropertyOp23
 70
     1
102
RTVSPropertyOp24
 70
     1
102
RTVSPropertyOp25
 70
     1
102
RTVSPropertyOp26
 70
     1
102
RTVSPropertyOp27
 70
     1
102
RTVSPropertyOp28
 70
     1
102
RTVSPropertyOp29
 70
     1
102
RTVSPropertyOp30
 70
     1
102
RTVSPropertyOp31
 70
     1
102
RTVSPropertyOp32
 70
     1
102
RTVSPropertyOp33
 70
     1
102
RTVSPropertyOp34
 70
     1
102
RTVSPropertyOp35
 70
     1
102
RTVSPropertyOp36
 70
     1
102
RTVSPropertyOp37
 70
     1
102
RTVSPropertyOp38
 70
     1
102
RTVSPropertyOp39
 70
     1
102
RTVSPropertyOp40
 70
     1
102
RTVSPropertyOp41
 70
     1
102
RTVSPropertyOp42
 70
     1
102
RTVSPropertyOp43
 70
     1
102
RTVSPropertyOp44
 70
     1
102
RTVSPropertyOp45
 70
     1
102
RTVSPropertyOp46
 70
     1
102
RTVSPropertyOp47
 70
     1
102
RTVSPropertyOp48
 70
     1
102
RTVSPropertyOp49
 70
     1
102
RTVSPropertyOp50
 70
     1
102
RTVSPropertyOp51
 70
     0
102
RTVSPropertyOp52
 70
     0
102
RTVSPropertyOp53
 70
     1
102
RTVSPropertyOp54
 70
     1
102
RTVSPropertyOp55
 70
     1
102
RTVSPropertyOp56
 70
     1
102
RTVSPropertyOp57
 70
     1
102
RTVSPropertyOp58
 70
     1
102
RTVSPropertyOp59
 70
     1
102
RTVSPropertyOp60
 70
     1
102
RTVSPropertyOp61
 70
     1
102
RTVSPropertyOp62
 70
     1
  0
XRECORD
  5
7A81
102
{ACAD_REACTORS
330
7A80
102
}
330
7A80
100
AcDbXrecord
280
     1
102
RTVSPost2010Prop28
280
     0
102
RTVSPost2010PropOp28
 70
     1
102
RTVSPost2010Prop29
280
     1
102
RTVSPost2010PropOp29
 70
     1
102
RTVSPost2010Prop30
280
     1
102
RTVSPost2010PropOp30
 70
     1
102
RTVSPost2010Prop31
280
     0
102
RTVSPost2010PropOp31
 70
     1
102
RTVSPost2010Prop32
280
     0
102
RTVSPost2010PropOp32
 70
     1
102
RTVSPost2010Prop33
280
     0
102
RTVSPost2010PropOp33
 70
     1
102
RTVSPost2010Prop34
280
     0
102
RTVSPost2010PropOp34
 70
     1
102
RTVSPost2010Prop35
280
     0
102
RTVSPost2010PropOp35
 70
     1
102
RTVSPost2010Prop36
280
     0
102
RTVSPost2010PropOp36
 70
     1
102
RTVSPost2010Prop37
 90
       50
102
RTVSPost2010PropOp37
 70
     1
102
RTVSPost2010Prop38
140
0.0
102
RTVSPost2010PropOp38
 70
     1
102
RTVSPost2010Prop39
140
1.0
102
RTVSPost2010PropOp39
 70
     1
102
RTVSPost2010Prop40
 90
        0
102
RTVSPost2010PropOp40
 70
     1
102
RTVSPost2010Prop41ColorIndex
 90
       18
102
RTVSPost2010Prop41ColorRGB
 90
        0
102
RTVSPost2010PropOp41
 70
     1
102
RTVSPost2010Prop42
 90
       50
102
RTVSPost2010PropOp42
 70
     1
102
RTVSPost2010Prop43
 90
        3
102
RTVSPost2010PropOp43
 70
     1
102
RTVSPost2010Prop44ColorIndex
 90
        5
102
RTVSPost2010Prop44ColorRGB
 90
      255
102
RTVSPost2010PropOp44
 70
     1
102
RTVSPost2010Prop45
280
     0
102
RTVSPost2010PropOp45
 70
     1
102
RTVSPost2010Prop46
 90
       50
102
RTVSPost2010PropOp46
 70
     1
102
RTVSPost2010Prop47
 90
       50
102
RTVSPost2010PropOp47
 70
     1
102
RTVSPost2010Prop48
 90
       50
102
RTVSPost2010PropOp48
 70
     1
102
RTVSPost2010Prop49
280
     0
102
RTVSPost2010PropOp49
 70
     1
102
RTVSPost2010Prop50
 90
       50
102
RTVSPost2010PropOp50
 70
     1
102
RTVSPost2010Prop51ColorIndex
 90
      256
102
RTVSPost2010Prop51ColorRGB
 90
-16777216
102
RTVSPost2010PropOp51
 70
     0
102
RTVSPost2010Prop52
140
1.0
102
RTVSPost2010PropOp52
 70
     0
102
RTVSPost2010Prop53
 90
        2
102
RTVSPost2010PropOp53
 70
     1
102
RTVSPost2010Prop54
  1
strokes_ogs.tif
102
RTVSPost2010PropOp54
 70
     1
102
RTVSPost2010Prop55
280
     0
102
RTVSPost2010PropOp55
 70
     1
102
RTVSPost2010Prop56
140
1.0
102
RTVSPost2010PropOp56
 70
     1
102
RTVSPost2010Prop57
140
1.0
102
RTVSPost2010PropOp57
 70
     1
102
RTVSPropertyOp0
 70
     1
102
RTVSPropertyOp1
 70
     1
102
RTVSPropertyOp2
 70
     1
102
RTVSPropertyOp3
 70
     1
102
RTVSPropertyOp4
 70
     1
102
RTVSPropertyOp5
 70
     1
102
RTVSPropertyOp6
 70
     1
102
RTVSPropertyOp7
 70
     1
102
RTVSPropertyOp8
 70
     1
102
RTVSPropertyOp9
 70
     1
102
RTVSPropertyOp10
 70
     1
102
RTVSPropertyOp11
 70
     1
102
RTVSPropertyOp12
 70
     1
102
RTVSPropertyOp13
 70
     1
102
RTVSPropertyOp14
 70
     1
102
RTVSPropertyOp15
 70
     1
102
RTVSPropertyOp16
 70
     1
102
RTVSPropertyOp17
 70
     1
102
RTVSPropertyOp18
 70
     1
102
RTVSPropertyOp19
 70
     1
102
RTVSPropertyOp20
 70
     1
102
RTVSPropertyOp21
 70
     1
102
RTVSPropertyOp22
 70
     1
102
RTVSPropertyOp23
 70
     1
102
RTVSPropertyOp24
 70
     1
102
RTVSPropertyOp25
 70
     1
102
RTVSPropertyOp26
 70
     1
102
RTVSPropertyOp27
 70
     1
102
RTVSPropertyOp28
 70
     1
102
RTVSPropertyOp29
 70
     1
102
RTVSPropertyOp30
 70
     1
102
RTVSPropertyOp31
 70
     1
102
RTVSPropertyOp32
 70
     1
102
RTVSPropertyOp33
 70
     1
102
RTVSPropertyOp34
 70
     1
102
RTVSPropertyOp35
 70
     1
102
RTVSPropertyOp36
 70
     1
102
RTVSPropertyOp37
 70
     1
102
RTVSPropertyOp38
 70
     1
102
RTVSPropertyOp39
 70
     1
102
RTVSPropertyOp40
 70
     1
102
RTVSPropertyOp41
 70
     1
102
RTVSPropertyOp42
 70
     1
102
RTVSPropertyOp43
 70
     1
102
RTVSPropertyOp44
 70
     1
102
RTVSPropertyOp45
 70
     1
102
RTVSPropertyOp46
 70
     1
102
RTVSPropertyOp47
 70
     1
102
RTVSPropertyOp48
 70
     1
102
RTVSPropertyOp49
 70
     1
102
RTVSPropertyOp50
 70
     1
102
RTVSPropertyOp51
 70
     0
102
RTVSPropertyOp52
 70
     0
102
RTVSPropertyOp53
 70
     1
102
RTVSPropertyOp54
 70
     1
102
RTVSPropertyOp55
 70
     1
102
RTVSPropertyOp56
 70
     1
102
RTVSPropertyOp57
 70
     1
102
RTVSPropertyOp58
 70
     1
102
RTVSPropertyOp59
 70
     1
102
RTVSPropertyOp60
 70
     1
102
RTVSPropertyOp61
 70
     1
102
RTVSPropertyOp62
 70
     1
  0
XRECORD
  5
7A83
102
{ACAD_REACTORS
330
7A82
102
}
330
7A82
100
AcDbXrecord
280
     1
102
RTVSPost2010Prop28
280
     0
102
RTVSPost2010PropOp28
 70
     1
102
RTVSPost2010Prop29
280
     1
102
RTVSPost2010PropOp29
 70
     1
102
RTVSPost2010Prop30
280
     1
102
RTVSPost2010PropOp30
 70
     1
102
RTVSPost2010Prop31
280
     0
102
RTVSPost2010PropOp31
 70
     1
102
RTVSPost2010Prop32
280
     0
102
RTVSPost2010PropOp32
 70
     1
102
RTVSPost2010Prop33
280
     0
102
RTVSPost2010PropOp33
 70
     1
102
RTVSPost2010Prop34
280
     0
102
RTVSPost2010PropOp34
 70
     1
102
RTVSPost2010Prop35
280
     0
102
RTVSPost2010PropOp35
 70
     1
102
RTVSPost2010Prop36
280
     0
102
RTVSPost2010PropOp36
 70
     1
102
RTVSPost2010Prop37
 90
       50
102
RTVSPost2010PropOp37
 70
     1
102
RTVSPost2010Prop38
140
0.0
102
RTVSPost2010PropOp38
 70
     1
102
RTVSPost2010Prop39
140
1.0
102
RTVSPost2010PropOp39
 70
     1
102
RTVSPost2010Prop40
 90
        0
102
RTVSPost2010PropOp40
 70
     1
102
RTVSPost2010Prop41ColorIndex
 90
       18
102
RTVSPost2010Prop41ColorRGB
 90
        0
102
RTVSPost2010PropOp41
 70
     1
102
RTVSPost2010Prop42
 90
       50
102
RTVSPost2010PropOp42
 70
     1
102
RTVSPost2010Prop43
 90
        3
102
RTVSPost2010PropOp43
 70
     1
102
RTVSPost2010Prop44ColorIndex
 90
        5
102
RTVSPost2010Prop44ColorRGB
 90
      255
102
RTVSPost2010PropOp44
 70
     1
102
RTVSPost2010Prop45
280
     0
102
RTVSPost2010PropOp45
 70
     1
102
RTVSPost2010Prop46
 90
       50
102
RTVSPost2010PropOp46
 70
     1
102
RTVSPost2010Prop47
 90
       50
102
RTVSPost2010PropOp47
 70
     1
102
RTVSPost2010Prop48
 90
       50
102
RTVSPost2010PropOp48
 70
     1
102
RTVSPost2010Prop49
280
     0
102
RTVSPost2010PropOp49
 70
     1
102
RTVSPost2010Prop50
 90
       50
102
RTVSPost2010PropOp50
 70
     1
102
RTVSPost2010Prop51ColorIndex
 90
      256
102
RTVSPost2010Prop51ColorRGB
 90
-16777216
102
RTVSPost2010PropOp51
 70
     0
102
RTVSPost2010Prop52
140
1.0
102
RTVSPost2010PropOp52
 70
     0
102
RTVSPost2010Prop53
 90
        2
102
RTVSPost2010PropOp53
 70
     1
102
RTVSPost2010Prop54
  1
strokes_ogs.tif
102
RTVSPost2010PropOp54
 70
     1
102
RTVSPost2010Prop55
280
     0
102
RTVSPost2010PropOp55
 70
     1
102
RTVSPost2010Prop56
140
1.0
102
RTVSPost2010PropOp56
 70
     1
102
RTVSPost2010Prop57
140
1.0
102
RTVSPost2010PropOp57
 70
     1
102
RTVSPropertyOp0
 70
     1
102
RTVSPropertyOp1
 70
     1
102
RTVSPropertyOp2
 70
     1
102
RTVSPropertyOp3
 70
     1
102
RTVSPropertyOp4
 70
     1
102
RTVSPropertyOp5
 70
     1
102
RTVSPropertyOp6
 70
     1
102
RTVSPropertyOp7
 70
     1
102
RTVSPropertyOp8
 70
     1
102
RTVSPropertyOp9
 70
     1
102
RTVSPropertyOp10
 70
     1
102
RTVSPropertyOp11
 70
     1
102
RTVSPropertyOp12
 70
     1
102
RTVSPropertyOp13
 70
     1
102
RTVSPropertyOp14
 70
     1
102
RTVSPropertyOp15
 70
     1
102
RTVSPropertyOp16
 70
     1
102
RTVSPropertyOp17
 70
     1
102
RTVSPropertyOp18
 70
     1
102
RTVSPropertyOp19
 70
     1
102
RTVSPropertyOp20
 70
     1
102
RTVSPropertyOp21
 70
     1
102
RTVSPropertyOp22
 70
     1
102
RTVSPropertyOp23
 70
     1
102
RTVSPropertyOp24
 70
     1
102
RTVSPropertyOp25
 70
     1
102
RTVSPropertyOp26
 70
     1
102
RTVSPropertyOp27
 70
     1
102
RTVSPropertyOp28
 70
     1
102
RTVSPropertyOp29
 70
     1
102
RTVSPropertyOp30
 70
     1
102
RTVSPropertyOp31
 70
     1
102
RTVSPropertyOp32
 70
     1
102
RTVSPropertyOp33
 70
     1
102
RTVSPropertyOp34
 70
     1
102
RTVSPropertyOp35
 70
     1
102
RTVSPropertyOp36
 70
     1
102
RTVSPropertyOp37
 70
     1
102
RTVSPropertyOp38
 70
     1
102
RTVSPropertyOp39
 70
     1
102
RTVSPropertyOp40
 70
     1
102
RTVSPropertyOp41
 70
     1
102
RTVSPropertyOp42
 70
     1
102
RTVSPropertyOp43
 70
     1
102
RTVSPropertyOp44
 70
     1
102
RTVSPropertyOp45
 70
     1
102
RTVSPropertyOp46
 70
     1
102
RTVSPropertyOp47
 70
     1
102
RTVSPropertyOp48
 70
     1
102
RTVSPropertyOp49
 70
     1
102
RTVSPropertyOp50
 70
     1
102
RTVSPropertyOp51
 70
     0
102
RTVSPropertyOp52
 70
     0
102
RTVSPropertyOp53
 70
     1
102
RTVSPropertyOp54
 70
     1
102
RTVSPropertyOp55
 70
     1
102
RTVSPropertyOp56
 70
     1
102
RTVSPropertyOp57
 70
     1
102
RTVSPropertyOp58
 70
     1
102
RTVSPropertyOp59
 70
     1
102
RTVSPropertyOp60
 70
     1
102
RTVSPropertyOp61
 70
     1
102
RTVSPropertyOp62
 70
     1
  0
XRECORD
  5
7A85
102
{ACAD_REACTORS
330
7A84
102
}
330
7A84
100
AcDbXrecord
280
     1
102
RTVSPost2010Prop28
280
     0
102
RTVSPost2010PropOp28
 70
     1
102
RTVSPost2010Prop29
280
     1
102
RTVSPost2010PropOp29
 70
     1
102
RTVSPost2010Prop30
280
     1
102
RTVSPost2010PropOp30
 70
     1
102
RTVSPost2010Prop31
280
     0
102
RTVSPost2010PropOp31
 70
     1
102
RTVSPost2010Prop32
280
     0
102
RTVSPost2010PropOp32
 70
     1
102
RTVSPost2010Prop33
280
     0
102
RTVSPost2010PropOp33
 70
     1
102
RTVSPost2010Prop34
280
     0
102
RTVSPost2010PropOp34
 70
     1
102
RTVSPost2010Prop35
280
     0
102
RTVSPost2010PropOp35
 70
     1
102
RTVSPost2010Prop36
280
     0
102
RTVSPost2010PropOp36
 70
     1
102
RTVSPost2010Prop37
 90
       50
102
RTVSPost2010PropOp37
 70
     1
102
RTVSPost2010Prop38
140
0.0
102
RTVSPost2010PropOp38
 70
     1
102
RTVSPost2010Prop39
140
1.0
102
RTVSPost2010PropOp39
 70
     1
102
RTVSPost2010Prop40
 90
        0
102
RTVSPost2010PropOp40
 70
     1
102
RTVSPost2010Prop41ColorIndex
 90
       18
102
RTVSPost2010Prop41ColorRGB
 90
        0
102
RTVSPost2010PropOp41
 70
     1
102
RTVSPost2010Prop42
 90
       50
102
RTVSPost2010PropOp42
 70
     1
102
RTVSPost2010Prop43
 90
        3
102
RTVSPost2010PropOp43
 70
     1
102
RTVSPost2010Prop44ColorIndex
 90
        5
102
RTVSPost2010Prop44ColorRGB
 90
      255
102
RTVSPost2010PropOp44
 70
     1
102
RTVSPost2010Prop45
280
     0
102
RTVSPost2010PropOp45
 70
     1
102
RTVSPost2010Prop46
 90
       50
102
RTVSPost2010PropOp46
 70
     1
102
RTVSPost2010Prop47
 90
       50
102
RTVSPost2010PropOp47
 70
     1
102
RTVSPost2010Prop48
 90
       50
102
RTVSPost2010PropOp48
 70
     1
102
RTVSPost2010Prop49
280
     0
102
RTVSPost2010PropOp49
 70
     1
102
RTVSPost2010Prop50
 90
       50
102
RTVSPost2010PropOp50
 70
     1
102
RTVSPost2010Prop51ColorIndex
 90
      256
102
RTVSPost2010Prop51ColorRGB
 90
-16777216
102
RTVSPost2010PropOp51
 70
     0
102
RTVSPost2010Prop52
140
1.0
102
RTVSPost2010PropOp52
 70
     0
102
RTVSPost2010Prop53
 90
        2
102
RTVSPost2010PropOp53
 70
     1
102
RTVSPost2010Prop54
  1
strokes_ogs.tif
102
RTVSPost2010PropOp54
 70
     1
102
RTVSPost2010Prop55
280
     0
102
RTVSPost2010PropOp55
 70
     1
102
RTVSPost2010Prop56
140
1.0
102
RTVSPost2010PropOp56
 70
     1
102
RTVSPost2010Prop57
140
1.0
102
RTVSPost2010PropOp57
 70
     1
102
RTVSPropertyOp0
 70
     1
102
RTVSPropertyOp1
 70
     1
102
RTVSPropertyOp2
 70
     1
102
RTVSPropertyOp3
 70
     1
102
RTVSPropertyOp4
 70
     1
102
RTVSPropertyOp5
 70
     1
102
RTVSPropertyOp6
 70
     1
102
RTVSPropertyOp7
 70
     1
102
RTVSPropertyOp8
 70
     1
102
RTVSPropertyOp9
 70
     1
102
RTVSPropertyOp10
 70
     1
102
RTVSPropertyOp11
 70
     1
102
RTVSPropertyOp12
 70
     1
102
RTVSPropertyOp13
 70
     1
102
RTVSPropertyOp14
 70
     1
102
RTVSPropertyOp15
 70
     1
102
RTVSPropertyOp16
 70
     1
102
RTVSPropertyOp17
 70
     1
102
RTVSPropertyOp18
 70
     1
102
RTVSPropertyOp19
 70
     1
102
RTVSPropertyOp20
 70
     1
102
RTVSPropertyOp21
 70
     1
102
RTVSPropertyOp22
 70
     1
102
RTVSPropertyOp23
 70
     1
102
RTVSPropertyOp24
 70
     1
102
RTVSPropertyOp25
 70
     1
102
RTVSPropertyOp26
 70
     1
102
RTVSPropertyOp27
 70
     1
102
RTVSPropertyOp28
 70
     1
102
RTVSPropertyOp29
 70
     1
102
RTVSPropertyOp30
 70
     1
102
RTVSPropertyOp31
 70
     1
102
RTVSPropertyOp32
 70
     1
102
RTVSPropertyOp33
 70
     1
102
RTVSPropertyOp34
 70
     1
102
RTVSPropertyOp35
 70
     1
102
RTVSPropertyOp36
 70
     1
102
RTVSPropertyOp37
 70
     1
102
RTVSPropertyOp38
 70
     1
102
RTVSPropertyOp39
 70
     1
102
RTVSPropertyOp40
 70
     1
102
RTVSPropertyOp41
 70
     1
102
RTVSPropertyOp42
 70
     1
102
RTVSPropertyOp43
 70
     1
102
RTVSPropertyOp44
 70
     1
102
RTVSPropertyOp45
 70
     1
102
RTVSPropertyOp46
 70
     1
102
RTVSPropertyOp47
 70
     1
102
RTVSPropertyOp48
 70
     1
102
RTVSPropertyOp49
 70
     1
102
RTVSPropertyOp50
 70
     1
102
RTVSPropertyOp51
 70
     0
102
RTVSPropertyOp52
 70
     0
102
RTVSPropertyOp53
 70
     1
102
RTVSPropertyOp54
 70
     1
102
RTVSPropertyOp55
 70
     1
102
RTVSPropertyOp56
 70
     1
102
RTVSPropertyOp57
 70
     1
102
RTVSPropertyOp58
 70
     1
102
RTVSPropertyOp59
 70
     1
102
RTVSPropertyOp60
 70
     1
102
RTVSPropertyOp61
 70
     1
102
RTVSPropertyOp62
 70
     1
  0
XRECORD
  5
7AA3
102
{ACAD_REACTORS
330
7AA2
102
}
330
7AA2
100
AcDbXrecord
280
     1
102
RTVSPost2010Prop28
280
     0
102
RTVSPost2010PropOp28
 70
     1
102
RTVSPost2010Prop29
280
     1
102
RTVSPost2010PropOp29
 70
     1
102
RTVSPost2010Prop30
280
     1
102
RTVSPost2010PropOp30
 70
     1
102
RTVSPost2010Prop31
280
     0
102
RTVSPost2010PropOp31
 70
     1
102
RTVSPost2010Prop32
280
     0
102
RTVSPost2010PropOp32
 70
     1
102
RTVSPost2010Prop33
280
     0
102
RTVSPost2010PropOp33
 70
     1
102
RTVSPost2010Prop34
280
     0
102
RTVSPost2010PropOp34
 70
     1
102
RTVSPost2010Prop35
280
     0
102
RTVSPost2010PropOp35
 70
     1
102
RTVSPost2010Prop36
280
     0
102
RTVSPost2010PropOp36
 70
     1
102
RTVSPost2010Prop37
 90
       50
102
RTVSPost2010PropOp37
 70
     1
102
RTVSPost2010Prop38
140
0.0
102
RTVSPost2010PropOp38
 70
     1
102
RTVSPost2010Prop39
140
1.0
102
RTVSPost2010PropOp39
 70
     1
102
RTVSPost2010Prop40
 90
        0
102
RTVSPost2010PropOp40
 70
     1
102
RTVSPost2010Prop41ColorIndex
 90
       18
102
RTVSPost2010Prop41ColorRGB
 90
        0
102
RTVSPost2010PropOp41
 70
     1
102
RTVSPost2010Prop42
 90
       50
102
RTVSPost2010PropOp42
 70
     1
102
RTVSPost2010Prop43
 90
        3
102
RTVSPost2010PropOp43
 70
     1
102
RTVSPost2010Prop44ColorIndex
 90
        5
102
RTVSPost2010Prop44ColorRGB
 90
      255
102
RTVSPost2010PropOp44
 70
     1
102
RTVSPost2010Prop45
280
     0
102
RTVSPost2010PropOp45
 70
     1
102
RTVSPost2010Prop46
 90
       50
102
RTVSPost2010PropOp46
 70
     1
102
RTVSPost2010Prop47
 90
       50
102
RTVSPost2010PropOp47
 70
     1
102
RTVSPost2010Prop48
 90
       50
102
RTVSPost2010PropOp48
 70
     1
102
RTVSPost2010Prop49
280
     0
102
RTVSPost2010PropOp49
 70
     1
102
RTVSPost2010Prop50
 90
       50
102
RTVSPost2010PropOp50
 70
     1
102
RTVSPost2010Prop51ColorIndex
 90
      256
102
RTVSPost2010Prop51ColorRGB
 90
-16777216
102
RTVSPost2010PropOp51
 70
     0
102
RTVSPost2010Prop52
140
1.0
102
RTVSPost2010PropOp52
 70
     0
102
RTVSPost2010Prop53
 90
        2
102
RTVSPost2010PropOp53
 70
     1
102
RTVSPost2010Prop54
  1
strokes_ogs.tif
102
RTVSPost2010PropOp54
 70
     1
102
RTVSPost2010Prop55
280
     0
102
RTVSPost2010PropOp55
 70
     1
102
RTVSPost2010Prop56
140
1.0
102
RTVSPost2010PropOp56
 70
     1
102
RTVSPost2010Prop57
140
1.0
102
RTVSPost2010PropOp57
 70
     1
102
RTVSPropertyOp0
 70
     1
102
RTVSPropertyOp1
 70
     1
102
RTVSPropertyOp2
 70
     1
102
RTVSPropertyOp3
 70
     1
102
RTVSPropertyOp4
 70
     1
102
RTVSPropertyOp5
 70
     1
102
RTVSPropertyOp6
 70
     1
102
RTVSPropertyOp7
 70
     1
102
RTVSPropertyOp8
 70
     1
102
RTVSPropertyOp9
 70
     1
102
RTVSPropertyOp10
 70
     1
102
RTVSPropertyOp11
 70
     1
102
RTVSPropertyOp12
 70
     1
102
RTVSPropertyOp13
 70
     1
102
RTVSPropertyOp14
 70
     1
102
RTVSPropertyOp15
 70
     1
102
RTVSPropertyOp16
 70
     1
102
RTVSPropertyOp17
 70
     1
102
RTVSPropertyOp18
 70
     1
102
RTVSPropertyOp19
 70
     1
102
RTVSPropertyOp20
 70
     1
102
RTVSPropertyOp21
 70
     1
102
RTVSPropertyOp22
 70
     1
102
RTVSPropertyOp23
 70
     1
102
RTVSPropertyOp24
 70
     1
102
RTVSPropertyOp25
 70
     1
102
RTVSPropertyOp26
 70
     1
102
RTVSPropertyOp27
 70
     1
102
RTVSPropertyOp28
 70
     1
102
RTVSPropertyOp29
 70
     1
102
RTVSPropertyOp30
 70
     1
102
RTVSPropertyOp31
 70
     1
102
RTVSPropertyOp32
 70
     1
102
RTVSPropertyOp33
 70
     1
102
RTVSPropertyOp34
 70
     1
102
RTVSPropertyOp35
 70
     1
102
RTVSPropertyOp36
 70
     1
102
RTVSPropertyOp37
 70
     1
102
RTVSPropertyOp38
 70
     1
102
RTVSPropertyOp39
 70
     1
102
RTVSPropertyOp40
 70
     1
102
RTVSPropertyOp41
 70
     1
102
RTVSPropertyOp42
 70
     1
102
RTVSPropertyOp43
 70
     1
102
RTVSPropertyOp44
 70
     1
102
RTVSPropertyOp45
 70
     1
102
RTVSPropertyOp46
 70
     1
102
RTVSPropertyOp47
 70
     1
102
RTVSPropertyOp48
 70
     1
102
RTVSPropertyOp49
 70
     1
102
RTVSPropertyOp50
 70
     1
102
RTVSPropertyOp51
 70
     0
102
RTVSPropertyOp52
 70
     0
102
RTVSPropertyOp53
 70
     1
102
RTVSPropertyOp54
 70
     1
102
RTVSPropertyOp55
 70
     1
102
RTVSPropertyOp56
 70
     1
102
RTVSPropertyOp57
 70
     1
102
RTVSPropertyOp58
 70
     1
102
RTVSPropertyOp59
 70
     1
102
RTVSPropertyOp60
 70
     1
102
RTVSPropertyOp61
 70
     1
102
RTVSPropertyOp62
 70
     1
  0
XRECORD
  5
7AAF
102
{ACAD_REACTORS
330
7AAE
102
}
330
7AAE
100
AcDbXrecord
280
     1
102
RTVSPost2010Prop28
280
     0
102
RTVSPost2010PropOp28
 70
     0
102
RTVSPost2010Prop29
280
     1
102
RTVSPost2010PropOp29
 70
     0
102
RTVSPost2010Prop30
280
     1
102
RTVSPost2010PropOp30
 70
     0
102
RTVSPost2010Prop31
280
     0
102
RTVSPost2010PropOp31
 70
     0
102
RTVSPost2010Prop32
280
     0
102
RTVSPost2010PropOp32
 70
     0
102
RTVSPost2010Prop33
280
     0
102
RTVSPost2010PropOp33
 70
     0
102
RTVSPost2010Prop34
280
     0
102
RTVSPost2010PropOp34
 70
     0
102
RTVSPost2010Prop35
280
     0
102
RTVSPost2010PropOp35
 70
     0
102
RTVSPost2010Prop36
280
     0
102
RTVSPost2010PropOp36
 70
     0
102
RTVSPost2010Prop37
 90
       50
102
RTVSPost2010PropOp37
 70
     0
102
RTVSPost2010Prop38
140
0.0
102
RTVSPost2010PropOp38
 70
     0
102
RTVSPost2010Prop39
140
1.0
102
RTVSPost2010PropOp39
 70
     0
102
RTVSPost2010Prop40
 90
        0
102
RTVSPost2010PropOp40
 70
     0
102
RTVSPost2010Prop41ColorIndex
 90
       18
102
RTVSPost2010Prop41ColorRGB
 90
        0
102
RTVSPost2010PropOp41
 70
     0
102
RTVSPost2010Prop42
 90
       50
102
RTVSPost2010PropOp42
 70
     0
102
RTVSPost2010Prop43
 90
        3
102
RTVSPost2010PropOp43
 70
     0
102
RTVSPost2010Prop44ColorIndex
 90
        5
102
RTVSPost2010Prop44ColorRGB
 90
      255
102
RTVSPost2010PropOp44
 70
     0
102
RTVSPost2010Prop45
280
     0
102
RTVSPost2010PropOp45
 70
     0
102
RTVSPost2010Prop46
 90
       50
102
RTVSPost2010PropOp46
 70
     0
102
RTVSPost2010Prop47
 90
       50
102
RTVSPost2010PropOp47
 70
     0
102
RTVSPost2010Prop48
 90
       50
102
RTVSPost2010PropOp48
 70
     0
102
RTVSPost2010Prop49
280
     0
102
RTVSPost2010PropOp49
 70
     0
102
RTVSPost2010Prop50
 90
       50
102
RTVSPost2010PropOp50
 70
     0
102
RTVSPost2010Prop51ColorIndex
 90
      256
102
RTVSPost2010Prop51ColorRGB
 90
-16777216
102
RTVSPost2010PropOp51
 70
     0
102
RTVSPost2010Prop52
140
1.0
102
RTVSPost2010PropOp52
 70
     0
102
RTVSPost2010Prop53
 90
        2
102
RTVSPost2010PropOp53
 70
     0
102
RTVSPost2010Prop54
  1
strokes_ogs.tif
102
RTVSPost2010PropOp54
 70
     0
102
RTVSPost2010Prop55
280
     0
102
RTVSPost2010PropOp55
 70
     0
102
RTVSPost2010Prop56
140
1.0
102
RTVSPost2010PropOp56
 70
     0
102
RTVSPost2010Prop57
140
1.0
102
RTVSPost2010PropOp57
 70
     0
102
RTVSPropertyOp0
 70
     0
102
RTVSPropertyOp1
 70
     0
102
RTVSPropertyOp2
 70
     0
102
RTVSPropertyOp3
 70
     0
102
RTVSPropertyOp4
 70
     0
102
RTVSPropertyOp5
 70
     0
102
RTVSPropertyOp6
 70
     0
102
RTVSPropertyOp7
 70
     0
102
RTVSPropertyOp8
 70
     0
102
RTVSPropertyOp9
 70
     0
102
RTVSPropertyOp10
 70
     0
102
RTVSPropertyOp11
 70
     0
102
RTVSPropertyOp12
 70
     0
102
RTVSPropertyOp13
 70
     0
102
RTVSPropertyOp14
 70
     2
102
RTVSPropertyOp15
 70
     0
102
RTVSPropertyOp16
 70
     0
102
RTVSPropertyOp17
 70
     0
102
RTVSPropertyOp18
 70
     0
102
RTVSPropertyOp19
 70
     0
102
RTVSPropertyOp20
 70
     0
102
RTVSPropertyOp21
 70
     0
102
RTVSPropertyOp22
 70
     0
102
RTVSPropertyOp23
 70
     0
102
RTVSPropertyOp24
 70
     0
102
RTVSPropertyOp25
 70
     0
102
RTVSPropertyOp26
 70
     0
102
RTVSPropertyOp27
 70
     0
102
RTVSPropertyOp28
 70
     0
102
RTVSPropertyOp29
 70
     0
102
RTVSPropertyOp30
 70
     0
102
RTVSPropertyOp31
 70
     0
102
RTVSPropertyOp32
 70
     0
102
RTVSPropertyOp33
 70
     0
102
RTVSPropertyOp34
 70
     0
102
RTVSPropertyOp35
 70
     0
102
RTVSPropertyOp36
 70
     0
102
RTVSPropertyOp37
 70
     0
102
RTVSPropertyOp38
 70
     0
102
RTVSPropertyOp39
 70
     0
102
RTVSPropertyOp40
 70
     0
102
RTVSPropertyOp41
 70
     0
102
RTVSPropertyOp42
 70
     0
102
RTVSPropertyOp43
 70
     0
102
RTVSPropertyOp44
 70
     0
102
RTVSPropertyOp45
 70
     0
102
RTVSPropertyOp46
 70
     0
102
RTVSPropertyOp47
 70
     0
102
RTVSPropertyOp48
 70
     0
102
RTVSPropertyOp49
 70
     0
102
RTVSPropertyOp50
 70
     0
102
RTVSPropertyOp51
 70
     0
102
RTVSPropertyOp52
 70
     0
102
RTVSPropertyOp53
 70
     0
102
RTVSPropertyOp54
 70
     0
102
RTVSPropertyOp55
 70
     0
102
RTVSPropertyOp56
 70
     0
102
RTVSPropertyOp57
 70
     0
102
RTVSPropertyOp58
 70
     0
102
RTVSPropertyOp59
 70
     0
102
RTVSPropertyOp60
 70
     0
102
RTVSPropertyOp61
 70
     0
102
RTVSPropertyOp62
 70
     0
  0
XRECORD
  5
7A99
102
{ACAD_REACTORS
330
7A98
102
}
330
7A98
100
AcDbXrecord
280
     1
102
RTVSPost2010Prop28
280
     0
102
RTVSPost2010PropOp28
 70
     1
102
RTVSPost2010Prop29
280
     1
102
RTVSPost2010PropOp29
 70
     1
102
RTVSPost2010Prop30
280
     1
102
RTVSPost2010PropOp30
 70
     1
102
RTVSPost2010Prop31
280
     0
102
RTVSPost2010PropOp31
 70
     1
102
RTVSPost2010Prop32
280
     0
102
RTVSPost2010PropOp32
 70
     1
102
RTVSPost2010Prop33
280
     0
102
RTVSPost2010PropOp33
 70
     1
102
RTVSPost2010Prop34
280
     0
102
RTVSPost2010PropOp34
 70
     1
102
RTVSPost2010Prop35
280
     0
102
RTVSPost2010PropOp35
 70
     1
102
RTVSPost2010Prop36
280
     0
102
RTVSPost2010PropOp36
 70
     1
102
RTVSPost2010Prop37
 90
       50
102
RTVSPost2010PropOp37
 70
     1
102
RTVSPost2010Prop38
140
0.0
102
RTVSPost2010PropOp38
 70
     1
102
RTVSPost2010Prop39
140
1.0
102
RTVSPost2010PropOp39
 70
     1
102
RTVSPost2010Prop40
 90
        0
102
RTVSPost2010PropOp40
 70
     1
102
RTVSPost2010Prop41ColorIndex
 90
       18
102
RTVSPost2010Prop41ColorRGB
 90
        0
102
RTVSPost2010PropOp41
 70
     1
102
RTVSPost2010Prop42
 90
       50
102
RTVSPost2010PropOp42
 70
     1
102
RTVSPost2010Prop43
 90
        3
102
RTVSPost2010PropOp43
 70
     1
102
RTVSPost2010Prop44ColorIndex
 90
        5
102
RTVSPost2010Prop44ColorRGB
 90
      255
102
RTVSPost2010PropOp44
 70
     1
102
RTVSPost2010Prop45
280
     0
102
RTVSPost2010PropOp45
 70
     1
102
RTVSPost2010Prop46
 90
       50
102
RTVSPost2010PropOp46
 70
     1
102
RTVSPost2010Prop47
 90
       50
102
RTVSPost2010PropOp47
 70
     1
102
RTVSPost2010Prop48
 90
       50
102
RTVSPost2010PropOp48
 70
     1
102
RTVSPost2010Prop49
280
     0
102
RTVSPost2010PropOp49
 70
     1
102
RTVSPost2010Prop50
 90
       50
102
RTVSPost2010PropOp50
 70
     1
102
RTVSPost2010Prop51ColorIndex
 90
      256
102
RTVSPost2010Prop51ColorRGB
 90
-16777216
102
RTVSPost2010PropOp51
 70
     0
102
RTVSPost2010Prop52
140
1.0
102
RTVSPost2010PropOp52
 70
     0
102
RTVSPost2010Prop53
 90
        2
102
RTVSPost2010PropOp53
 70
     1
102
RTVSPost2010Prop54
  1
strokes_ogs.tif
102
RTVSPost2010PropOp54
 70
     1
102
RTVSPost2010Prop55
280
     0
102
RTVSPost2010PropOp55
 70
     1
102
RTVSPost2010Prop56
140
1.0
102
RTVSPost2010PropOp56
 70
     1
102
RTVSPost2010Prop57
140
1.0
102
RTVSPost2010PropOp57
 70
     1
102
RTVSPropertyOp0
 70
     1
102
RTVSPropertyOp1
 70
     1
102
RTVSPropertyOp2
 70
     1
102
RTVSPropertyOp3
 70
     1
102
RTVSPropertyOp4
 70
     1
102
RTVSPropertyOp5
 70
     1
102
RTVSPropertyOp6
 70
     1
102
RTVSPropertyOp7
 70
     1
102
RTVSPropertyOp8
 70
     1
102
RTVSPropertyOp9
 70
     1
102
RTVSPropertyOp10
 70
     1
102
RTVSPropertyOp11
 70
     1
102
RTVSPropertyOp12
 70
     1
102
RTVSPropertyOp13
 70
     1
102
RTVSPropertyOp14
 70
     1
102
RTVSPropertyOp15
 70
     1
102
RTVSPropertyOp16
 70
     1
102
RTVSPropertyOp17
 70
     1
102
RTVSPropertyOp18
 70
     1
102
RTVSPropertyOp19
 70
     1
102
RTVSPropertyOp20
 70
     1
102
RTVSPropertyOp21
 70
     1
102
RTVSPropertyOp22
 70
     1
102
RTVSPropertyOp23
 70
     1
102
RTVSPropertyOp24
 70
     1
102
RTVSPropertyOp25
 70
     1
102
RTVSPropertyOp26
 70
     1
102
RTVSPropertyOp27
 70
     1
102
RTVSPropertyOp28
 70
     1
102
RTVSPropertyOp29
 70
     1
102
RTVSPropertyOp30
 70
     1
102
RTVSPropertyOp31
 70
     1
102
RTVSPropertyOp32
 70
     1
102
RTVSPropertyOp33
 70
     1
102
RTVSPropertyOp34
 70
     1
102
RTVSPropertyOp35
 70
     1
102
RTVSPropertyOp36
 70
     1
102
RTVSPropertyOp37
 70
     1
102
RTVSPropertyOp38
 70
     1
102
RTVSPropertyOp39
 70
     1
102
RTVSPropertyOp40
 70
     1
102
RTVSPropertyOp41
 70
     1
102
RTVSPropertyOp42
 70
     1
102
RTVSPropertyOp43
 70
     1
102
RTVSPropertyOp44
 70
     1
102
RTVSPropertyOp45
 70
     1
102
RTVSPropertyOp46
 70
     1
102
RTVSPropertyOp47
 70
     1
102
RTVSPropertyOp48
 70
     1
102
RTVSPropertyOp49
 70
     1
102
RTVSPropertyOp50
 70
     1
102
RTVSPropertyOp51
 70
     0
102
RTVSPropertyOp52
 70
     0
102
RTVSPropertyOp53
 70
     1
102
RTVSPropertyOp54
 70
     1
102
RTVSPropertyOp55
 70
     1
102
RTVSPropertyOp56
 70
     1
102
RTVSPropertyOp57
 70
     1
102
RTVSPropertyOp58
 70
     1
102
RTVSPropertyOp59
 70
     1
102
RTVSPropertyOp60
 70
     1
102
RTVSPropertyOp61
 70
     1
102
RTVSPropertyOp62
 70
     1
  0
XRECORD
  5
7AB1
102
{ACAD_REACTORS
330
7AB0
102
}
330
7AB0
100
AcDbXrecord
280
     1
102
RTVSPost2010Prop28
280
     0
102
RTVSPost2010PropOp28
 70
     0
102
RTVSPost2010Prop29
280
     1
102
RTVSPost2010PropOp29
 70
     0
102
RTVSPost2010Prop30
280
     1
102
RTVSPost2010PropOp30
 70
     0
102
RTVSPost2010Prop31
280
     0
102
RTVSPost2010PropOp31
 70
     0
102
RTVSPost2010Prop32
280
     0
102
RTVSPost2010PropOp32
 70
     0
102
RTVSPost2010Prop33
280
     0
102
RTVSPost2010PropOp33
 70
     0
102
RTVSPost2010Prop34
280
     0
102
RTVSPost2010PropOp34
 70
     0
102
RTVSPost2010Prop35
280
     0
102
RTVSPost2010PropOp35
 70
     0
102
RTVSPost2010Prop36
280
     0
102
RTVSPost2010PropOp36
 70
     0
102
RTVSPost2010Prop37
 90
       50
102
RTVSPost2010PropOp37
 70
     0
102
RTVSPost2010Prop38
140
0.0
102
RTVSPost2010PropOp38
 70
     0
102
RTVSPost2010Prop39
140
1.0
102
RTVSPost2010PropOp39
 70
     0
102
RTVSPost2010Prop40
 90
        0
102
RTVSPost2010PropOp40
 70
     0
102
RTVSPost2010Prop41ColorIndex
 90
       18
102
RTVSPost2010Prop41ColorRGB
 90
        0
102
RTVSPost2010PropOp41
 70
     0
102
RTVSPost2010Prop42
 90
       50
102
RTVSPost2010PropOp42
 70
     0
102
RTVSPost2010Prop43
 90
        3
102
RTVSPost2010PropOp43
 70
     0
102
RTVSPost2010Prop44ColorIndex
 90
        5
102
RTVSPost2010Prop44ColorRGB
 90
      255
102
RTVSPost2010PropOp44
 70
     0
102
RTVSPost2010Prop45
280
     0
102
RTVSPost2010PropOp45
 70
     0
102
RTVSPost2010Prop46
 90
       50
102
RTVSPost2010PropOp46
 70
     0
102
RTVSPost2010Prop47
 90
       50
102
RTVSPost2010PropOp47
 70
     0
102
RTVSPost2010Prop48
 90
       50
102
RTVSPost2010PropOp48
 70
     0
102
RTVSPost2010Prop49
280
     0
102
RTVSPost2010PropOp49
 70
     0
102
RTVSPost2010Prop50
 90
       50
102
RTVSPost2010PropOp50
 70
     0
102
RTVSPost2010Prop51ColorIndex
 90
      256
102
RTVSPost2010Prop51ColorRGB
 90
-16777216
102
RTVSPost2010PropOp51
 70
     0
102
RTVSPost2010Prop52
140
1.0
102
RTVSPost2010PropOp52
 70
     0
102
RTVSPost2010Prop53
 90
        2
102
RTVSPost2010PropOp53
 70
     0
102
RTVSPost2010Prop54
  1
strokes_ogs.tif
102
RTVSPost2010PropOp54
 70
     0
102
RTVSPost2010Prop55
280
     0
102
RTVSPost2010PropOp55
 70
     0
102
RTVSPost2010Prop56
140
1.0
102
RTVSPost2010PropOp56
 70
     0
102
RTVSPost2010Prop57
140
1.0
102
RTVSPost2010PropOp57
 70
     0
102
RTVSPropertyOp0
 70
     0
102
RTVSPropertyOp1
 70
     0
102
RTVSPropertyOp2
 70
     0
102
RTVSPropertyOp3
 70
     0
102
RTVSPropertyOp4
 70
     0
102
RTVSPropertyOp5
 70
     0
102
RTVSPropertyOp6
 70
     0
102
RTVSPropertyOp7
 70
     0
102
RTVSPropertyOp8
 70
     0
102
RTVSPropertyOp9
 70
     0
102
RTVSPropertyOp10
 70
     0
102
RTVSPropertyOp11
 70
     0
102
RTVSPropertyOp12
 70
     0
102
RTVSPropertyOp13
 70
     0
102
RTVSPropertyOp14
 70
     2
102
RTVSPropertyOp15
 70
     0
102
RTVSPropertyOp16
 70
     0
102
RTVSPropertyOp17
 70
     0
102
RTVSPropertyOp18
 70
     0
102
RTVSPropertyOp19
 70
     0
102
RTVSPropertyOp20
 70
     0
102
RTVSPropertyOp21
 70
     0
102
RTVSPropertyOp22
 70
     0
102
RTVSPropertyOp23
 70
     0
102
RTVSPropertyOp24
 70
     0
102
RTVSPropertyOp25
 70
     0
102
RTVSPropertyOp26
 70
     0
102
RTVSPropertyOp27
 70
     0
102
RTVSPropertyOp28
 70
     0
102
RTVSPropertyOp29
 70
     0
102
RTVSPropertyOp30
 70
     0
102
RTVSPropertyOp31
 70
     0
102
RTVSPropertyOp32
 70
     0
102
RTVSPropertyOp33
 70
     0
102
RTVSPropertyOp34
 70
     0
102
RTVSPropertyOp35
 70
     0
102
RTVSPropertyOp36
 70
     0
102
RTVSPropertyOp37
 70
     0
102
RTVSPropertyOp38
 70
     0
102
RTVSPropertyOp39
 70
     0
102
RTVSPropertyOp40
 70
     0
102
RTVSPropertyOp41
 70
     0
102
RTVSPropertyOp42
 70
     0
102
RTVSPropertyOp43
 70
     0
102
RTVSPropertyOp44
 70
     0
102
RTVSPropertyOp45
 70
     0
102
RTVSPropertyOp46
 70
     0
102
RTVSPropertyOp47
 70
     0
102
RTVSPropertyOp48
 70
     0
102
RTVSPropertyOp49
 70
     0
102
RTVSPropertyOp50
 70
     0
102
RTVSPropertyOp51
 70
     0
102
RTVSPropertyOp52
 70
     0
102
RTVSPropertyOp53
 70
     0
102
RTVSPropertyOp54
 70
     0
102
RTVSPropertyOp55
 70
     0
102
RTVSPropertyOp56
 70
     0
102
RTVSPropertyOp57
 70
     0
102
RTVSPropertyOp58
 70
     0
102
RTVSPropertyOp59
 70
     0
102
RTVSPropertyOp60
 70
     0
102
RTVSPropertyOp61
 70
     0
102
RTVSPropertyOp62
 70
     0
  0
XRECORD
  5
7A91
102
{ACAD_REACTORS
330
7A90
102
}
330
7A90
100
AcDbXrecord
280
     1
102
RTVSPost2010Prop28
280
     0
102
RTVSPost2010PropOp28
 70
     1
102
RTVSPost2010Prop29
280
     1
102
RTVSPost2010PropOp29
 70
     1
102
RTVSPost2010Prop30
280
     1
102
RTVSPost2010PropOp30
 70
     1
102
RTVSPost2010Prop31
280
     0
102
RTVSPost2010PropOp31
 70
     1
102
RTVSPost2010Prop32
280
     0
102
RTVSPost2010PropOp32
 70
     1
102
RTVSPost2010Prop33
280
     0
102
RTVSPost2010PropOp33
 70
     1
102
RTVSPost2010Prop34
280
     0
102
RTVSPost2010PropOp34
 70
     1
102
RTVSPost2010Prop35
280
     0
102
RTVSPost2010PropOp35
 70
     1
102
RTVSPost2010Prop36
280
     0
102
RTVSPost2010PropOp36
 70
     1
102
RTVSPost2010Prop37
 90
       50
102
RTVSPost2010PropOp37
 70
     1
102
RTVSPost2010Prop38
140
0.0
102
RTVSPost2010PropOp38
 70
     1
102
RTVSPost2010Prop39
140
1.0
102
RTVSPost2010PropOp39
 70
     1
102
RTVSPost2010Prop40
 90
        0
102
RTVSPost2010PropOp40
 70
     1
102
RTVSPost2010Prop41ColorIndex
 90
       18
102
RTVSPost2010Prop41ColorRGB
 90
        0
102
RTVSPost2010PropOp41
 70
     1
102
RTVSPost2010Prop42
 90
       50
102
RTVSPost2010PropOp42
 70
     1
102
RTVSPost2010Prop43
 90
        3
102
RTVSPost2010PropOp43
 70
     1
102
RTVSPost2010Prop44ColorIndex
 90
        5
102
RTVSPost2010Prop44ColorRGB
 90
      255
102
RTVSPost2010PropOp44
 70
     1
102
RTVSPost2010Prop45
280
     0
102
RTVSPost2010PropOp45
 70
     1
102
RTVSPost2010Prop46
 90
       50
102
RTVSPost2010PropOp46
 70
     1
102
RTVSPost2010Prop47
 90
       50
102
RTVSPost2010PropOp47
 70
     1
102
RTVSPost2010Prop48
 90
       50
102
RTVSPost2010PropOp48
 70
     1
102
RTVSPost2010Prop49
280
     0
102
RTVSPost2010PropOp49
 70
     1
102
RTVSPost2010Prop50
 90
       50
102
RTVSPost2010PropOp50
 70
     1
102
RTVSPost2010Prop51ColorIndex
 90
      256
102
RTVSPost2010Prop51ColorRGB
 90
-16777216
102
RTVSPost2010PropOp51
 70
     0
102
RTVSPost2010Prop52
140
1.0
102
RTVSPost2010PropOp52
 70
     0
102
RTVSPost2010Prop53
 90
        2
102
RTVSPost2010PropOp53
 70
     1
102
RTVSPost2010Prop54
  1
strokes_ogs.tif
102
RTVSPost2010PropOp54
 70
     1
102
RTVSPost2010Prop55
280
     0
102
RTVSPost2010PropOp55
 70
     1
102
RTVSPost2010Prop56
140
1.0
102
RTVSPost2010PropOp56
 70
     1
102
RTVSPost2010Prop57
140
1.0
102
RTVSPost2010PropOp57
 70
     1
102
RTVSPropertyOp0
 70
     1
102
RTVSPropertyOp1
 70
     1
102
RTVSPropertyOp2
 70
     1
102
RTVSPropertyOp3
 70
     1
102
RTVSPropertyOp4
 70
     1
102
RTVSPropertyOp5
 70
     1
102
RTVSPropertyOp6
 70
     1
102
RTVSPropertyOp7
 70
     1
102
RTVSPropertyOp8
 70
     1
102
RTVSPropertyOp9
 70
     1
102
RTVSPropertyOp10
 70
     1
102
RTVSPropertyOp11
 70
     1
102
RTVSPropertyOp12
 70
     1
102
RTVSPropertyOp13
 70
     1
102
RTVSPropertyOp14
 70
     1
102
RTVSPropertyOp15
 70
     1
102
RTVSPropertyOp16
 70
     1
102
RTVSPropertyOp17
 70
     1
102
RTVSPropertyOp18
 70
     1
102
RTVSPropertyOp19
 70
     1
102
RTVSPropertyOp20
 70
     1
102
RTVSPropertyOp21
 70
     1
102
RTVSPropertyOp22
 70
     1
102
RTVSPropertyOp23
 70
     1
102
RTVSPropertyOp24
 70
     1
102
RTVSPropertyOp25
 70
     1
102
RTVSPropertyOp26
 70
     1
102
RTVSPropertyOp27
 70
     1
102
RTVSPropertyOp28
 70
     1
102
RTVSPropertyOp29
 70
     1
102
RTVSPropertyOp30
 70
     1
102
RTVSPropertyOp31
 70
     1
102
RTVSPropertyOp32
 70
     1
102
RTVSPropertyOp33
 70
     1
102
RTVSPropertyOp34
 70
     1
102
RTVSPropertyOp35
 70
     1
102
RTVSPropertyOp36
 70
     1
102
RTVSPropertyOp37
 70
     1
102
RTVSPropertyOp38
 70
     1
102
RTVSPropertyOp39
 70
     1
102
RTVSPropertyOp40
 70
     1
102
RTVSPropertyOp41
 70
     1
102
RTVSPropertyOp42
 70
     1
102
RTVSPropertyOp43
 70
     1
102
RTVSPropertyOp44
 70
     1
102
RTVSPropertyOp45
 70
     1
102
RTVSPropertyOp46
 70
     1
102
RTVSPropertyOp47
 70
     1
102
RTVSPropertyOp48
 70
     1
102
RTVSPropertyOp49
 70
     1
102
RTVSPropertyOp50
 70
     1
102
RTVSPropertyOp51
 70
     0
102
RTVSPropertyOp52
 70
     0
102
RTVSPropertyOp53
 70
     1
102
RTVSPropertyOp54
 70
     1
102
RTVSPropertyOp55
 70
     1
102
RTVSPropertyOp56
 70
     1
102
RTVSPropertyOp57
 70
     1
102
RTVSPropertyOp58
 70
     1
102
RTVSPropertyOp59
 70
     1
102
RTVSPropertyOp60
 70
     1
102
RTVSPropertyOp61
 70
     1
102
RTVSPropertyOp62
 70
     1
  0
XRECORD
  5
7AAD
102
{ACAD_REACTORS
330
7AAC
102
}
330
7AAC
100
AcDbXrecord
280
     1
102
RTVSPost2010Prop28
280
     0
102
RTVSPost2010PropOp28
 70
     1
102
RTVSPost2010Prop29
280
     1
102
RTVSPost2010PropOp29
 70
     1
102
RTVSPost2010Prop30
280
     1
102
RTVSPost2010PropOp30
 70
     1
102
RTVSPost2010Prop31
280
     0
102
RTVSPost2010PropOp31
 70
     1
102
RTVSPost2010Prop32
280
     0
102
RTVSPost2010PropOp32
 70
     1
102
RTVSPost2010Prop33
280
     0
102
RTVSPost2010PropOp33
 70
     1
102
RTVSPost2010Prop34
280
     0
102
RTVSPost2010PropOp34
 70
     1
102
RTVSPost2010Prop35
280
     0
102
RTVSPost2010PropOp35
 70
     1
102
RTVSPost2010Prop36
280
     0
102
RTVSPost2010PropOp36
 70
     1
102
RTVSPost2010Prop37
 90
       50
102
RTVSPost2010PropOp37
 70
     1
102
RTVSPost2010Prop38
140
0.0
102
RTVSPost2010PropOp38
 70
     1
102
RTVSPost2010Prop39
140
1.0
102
RTVSPost2010PropOp39
 70
     1
102
RTVSPost2010Prop40
 90
        0
102
RTVSPost2010PropOp40
 70
     1
102
RTVSPost2010Prop41ColorIndex
 90
       18
102
RTVSPost2010Prop41ColorRGB
 90
        0
102
RTVSPost2010PropOp41
 70
     1
102
RTVSPost2010Prop42
 90
       50
102
RTVSPost2010PropOp42
 70
     1
102
RTVSPost2010Prop43
 90
        3
102
RTVSPost2010PropOp43
 70
     1
102
RTVSPost2010Prop44ColorIndex
 90
        5
102
RTVSPost2010Prop44ColorRGB
 90
      255
102
RTVSPost2010PropOp44
 70
     1
102
RTVSPost2010Prop45
280
     0
102
RTVSPost2010PropOp45
 70
     1
102
RTVSPost2010Prop46
 90
       50
102
RTVSPost2010PropOp46
 70
     1
102
RTVSPost2010Prop47
 90
       50
102
RTVSPost2010PropOp47
 70
     1
102
RTVSPost2010Prop48
 90
       50
102
RTVSPost2010PropOp48
 70
     1
102
RTVSPost2010Prop49
280
     0
102
RTVSPost2010PropOp49
 70
     1
102
RTVSPost2010Prop50
 90
       50
102
RTVSPost2010PropOp50
 70
     1
102
RTVSPost2010Prop51ColorIndex
 90
      256
102
RTVSPost2010Prop51ColorRGB
 90
-16777216
102
RTVSPost2010PropOp51
 70
     0
102
RTVSPost2010Prop52
140
1.0
102
RTVSPost2010PropOp52
 70
     0
102
RTVSPost2010Prop53
 90
        2
102
RTVSPost2010PropOp53
 70
     1
102
RTVSPost2010Prop54
  1
strokes_ogs.tif
102
RTVSPost2010PropOp54
 70
     1
102
RTVSPost2010Prop55
280
     0
102
RTVSPost2010PropOp55
 70
     1
102
RTVSPost2010Prop56
140
1.0
102
RTVSPost2010PropOp56
 70
     1
102
RTVSPost2010Prop57
140
1.0
102
RTVSPost2010PropOp57
 70
     1
102
RTVSPropertyOp0
 70
     1
102
RTVSPropertyOp1
 70
     1
102
RTVSPropertyOp2
 70
     1
102
RTVSPropertyOp3
 70
     1
102
RTVSPropertyOp4
 70
     1
102
RTVSPropertyOp5
 70
     1
102
RTVSPropertyOp6
 70
     1
102
RTVSPropertyOp7
 70
     1
102
RTVSPropertyOp8
 70
     1
102
RTVSPropertyOp9
 70
     1
102
RTVSPropertyOp10
 70
     1
102
RTVSPropertyOp11
 70
     1
102
RTVSPropertyOp12
 70
     1
102
RTVSPropertyOp13
 70
     1
102
RTVSPropertyOp14
 70
     1
102
RTVSPropertyOp15
 70
     1
102
RTVSPropertyOp16
 70
     1
102
RTVSPropertyOp17
 70
     1
102
RTVSPropertyOp18
 70
     1
102
RTVSPropertyOp19
 70
     1
102
RTVSPropertyOp20
 70
     1
102
RTVSPropertyOp21
 70
     1
102
RTVSPropertyOp22
 70
     1
102
RTVSPropertyOp23
 70
     1
102
RTVSPropertyOp24
 70
     1
102
RTVSPropertyOp25
 70
     1
102
RTVSPropertyOp26
 70
     1
102
RTVSPropertyOp27
 70
     1
102
RTVSPropertyOp28
 70
     1
102
RTVSPropertyOp29
 70
     1
102
RTVSPropertyOp30
 70
     1
102
RTVSPropertyOp31
 70
     1
102
RTVSPropertyOp32
 70
     1
102
RTVSPropertyOp33
 70
     1
102
RTVSPropertyOp34
 70
     1
102
RTVSPropertyOp35
 70
     1
102
RTVSPropertyOp36
 70
     1
102
RTVSPropertyOp37
 70
     1
102
RTVSPropertyOp38
 70
     1
102
RTVSPropertyOp39
 70
     1
102
RTVSPropertyOp40
 70
     1
102
RTVSPropertyOp41
 70
     1
102
RTVSPropertyOp42
 70
     1
102
RTVSPropertyOp43
 70
     1
102
RTVSPropertyOp44
 70
     1
102
RTVSPropertyOp45
 70
     1
102
RTVSPropertyOp46
 70
     1
102
RTVSPropertyOp47
 70
     1
102
RTVSPropertyOp48
 70
     1
102
RTVSPropertyOp49
 70
     1
102
RTVSPropertyOp50
 70
     1
102
RTVSPropertyOp51
 70
     0
102
RTVSPropertyOp52
 70
     0
102
RTVSPropertyOp53
 70
     1
102
RTVSPropertyOp54
 70
     1
102
RTVSPropertyOp55
 70
     1
102
RTVSPropertyOp56
 70
     1
102
RTVSPropertyOp57
 70
     1
102
RTVSPropertyOp58
 70
     1
102
RTVSPropertyOp59
 70
     1
102
RTVSPropertyOp60
 70
     1
102
RTVSPropertyOp61
 70
     1
102
RTVSPropertyOp62
 70
     1
  0
XRECORD
  5
7AAB
102
{ACAD_REACTORS
330
7AAA
102
}
330
7AAA
100
AcDbXrecord
280
     1
102
RTVSPost2010Prop28
280
     0
102
RTVSPost2010PropOp28
 70
     1
102
RTVSPost2010Prop29
280
     1
102
RTVSPost2010PropOp29
 70
     1
102
RTVSPost2010Prop30
280
     1
102
RTVSPost2010PropOp30
 70
     1
102
RTVSPost2010Prop31
280
     0
102
RTVSPost2010PropOp31
 70
     1
102
RTVSPost2010Prop32
280
     0
102
RTVSPost2010PropOp32
 70
     1
102
RTVSPost2010Prop33
280
     0
102
RTVSPost2010PropOp33
 70
     1
102
RTVSPost2010Prop34
280
     0
102
RTVSPost2010PropOp34
 70
     1
102
RTVSPost2010Prop35
280
     0
102
RTVSPost2010PropOp35
 70
     1
102
RTVSPost2010Prop36
280
     0
102
RTVSPost2010PropOp36
 70
     1
102
RTVSPost2010Prop37
 90
       50
102
RTVSPost2010PropOp37
 70
     1
102
RTVSPost2010Prop38
140
0.0
102
RTVSPost2010PropOp38
 70
     1
102
RTVSPost2010Prop39
140
1.0
102
RTVSPost2010PropOp39
 70
     1
102
RTVSPost2010Prop40
 90
        0
102
RTVSPost2010PropOp40
 70
     1
102
RTVSPost2010Prop41ColorIndex
 90
       18
102
RTVSPost2010Prop41ColorRGB
 90
        0
102
RTVSPost2010PropOp41
 70
     1
102
RTVSPost2010Prop42
 90
       50
102
RTVSPost2010PropOp42
 70
     1
102
RTVSPost2010Prop43
 90
        3
102
RTVSPost2010PropOp43
 70
     1
102
RTVSPost2010Prop44ColorIndex
 90
        5
102
RTVSPost2010Prop44ColorRGB
 90
      255
102
RTVSPost2010PropOp44
 70
     1
102
RTVSPost2010Prop45
280
     0
102
RTVSPost2010PropOp45
 70
     1
102
RTVSPost2010Prop46
 90
       50
102
RTVSPost2010PropOp46
 70
     1
102
RTVSPost2010Prop47
 90
       50
102
RTVSPost2010PropOp47
 70
     1
102
RTVSPost2010Prop48
 90
       50
102
RTVSPost2010PropOp48
 70
     1
102
RTVSPost2010Prop49
280
     0
102
RTVSPost2010PropOp49
 70
     1
102
RTVSPost2010Prop50
 90
       50
102
RTVSPost2010PropOp50
 70
     1
102
RTVSPost2010Prop51ColorIndex
 90
      256
102
RTVSPost2010Prop51ColorRGB
 90
-16777216
102
RTVSPost2010PropOp51
 70
     0
102
RTVSPost2010Prop52
140
1.0
102
RTVSPost2010PropOp52
 70
     0
102
RTVSPost2010Prop53
 90
        2
102
RTVSPost2010PropOp53
 70
     1
102
RTVSPost2010Prop54
  1
strokes_ogs.tif
102
RTVSPost2010PropOp54
 70
     1
102
RTVSPost2010Prop55
280
     0
102
RTVSPost2010PropOp55
 70
     1
102
RTVSPost2010Prop56
140
1.0
102
RTVSPost2010PropOp56
 70
     1
102
RTVSPost2010Prop57
140
1.0
102
RTVSPost2010PropOp57
 70
     1
102
RTVSPropertyOp0
 70
     1
102
RTVSPropertyOp1
 70
     1
102
RTVSPropertyOp2
 70
     1
102
RTVSPropertyOp3
 70
     1
102
RTVSPropertyOp4
 70
     1
102
RTVSPropertyOp5
 70
     1
102
RTVSPropertyOp6
 70
     1
102
RTVSPropertyOp7
 70
     1
102
RTVSPropertyOp8
 70
     1
102
RTVSPropertyOp9
 70
     1
102
RTVSPropertyOp10
 70
     1
102
RTVSPropertyOp11
 70
     1
102
RTVSPropertyOp12
 70
     1
102
RTVSPropertyOp13
 70
     1
102
RTVSPropertyOp14
 70
     1
102
RTVSPropertyOp15
 70
     1
102
RTVSPropertyOp16
 70
     1
102
RTVSPropertyOp17
 70
     1
102
RTVSPropertyOp18
 70
     1
102
RTVSPropertyOp19
 70
     1
102
RTVSPropertyOp20
 70
     1
102
RTVSPropertyOp21
 70
     1
102
RTVSPropertyOp22
 70
     1
102
RTVSPropertyOp23
 70
     1
102
RTVSPropertyOp24
 70
     1
102
RTVSPropertyOp25
 70
     1
102
RTVSPropertyOp26
 70
     1
102
RTVSPropertyOp27
 70
     1
102
RTVSPropertyOp28
 70
     1
102
RTVSPropertyOp29
 70
     1
102
RTVSPropertyOp30
 70
     1
102
RTVSPropertyOp31
 70
     1
102
RTVSPropertyOp32
 70
     1
102
RTVSPropertyOp33
 70
     1
102
RTVSPropertyOp34
 70
     1
102
RTVSPropertyOp35
 70
     1
102
RTVSPropertyOp36
 70
     1
102
RTVSPropertyOp37
 70
     1
102
RTVSPropertyOp38
 70
     1
102
RTVSPropertyOp39
 70
     1
102
RTVSPropertyOp40
 70
     1
102
RTVSPropertyOp41
 70
     1
102
RTVSPropertyOp42
 70
     1
102
RTVSPropertyOp43
 70
     1
102
RTVSPropertyOp44
 70
     1
102
RTVSPropertyOp45
 70
     1
102
RTVSPropertyOp46
 70
     1
102
RTVSPropertyOp47
 70
     1
102
RTVSPropertyOp48
 70
     1
102
RTVSPropertyOp49
 70
     1
102
RTVSPropertyOp50
 70
     1
102
RTVSPropertyOp51
 70
     0
102
RTVSPropertyOp52
 70
     0
102
RTVSPropertyOp53
 70
     1
102
RTVSPropertyOp54
 70
     1
102
RTVSPropertyOp55
 70
     1
102
RTVSPropertyOp56
 70
     1
102
RTVSPropertyOp57
 70
     1
102
RTVSPropertyOp58
 70
     1
102
RTVSPropertyOp59
 70
     1
102
RTVSPropertyOp60
 70
     1
102
RTVSPropertyOp61
 70
     1
102
RTVSPropertyOp62
 70
     1
  0
XRECORD
  5
7AA5
102
{ACAD_REACTORS
330
7AA4
102
}
330
7AA4
100
AcDbXrecord
280
     1
102
RTVSPost2010Prop28
280
     0
102
RTVSPost2010PropOp28
 70
     1
102
RTVSPost2010Prop29
280
     1
102
RTVSPost2010PropOp29
 70
     1
102
RTVSPost2010Prop30
280
     1
102
RTVSPost2010PropOp30
 70
     1
102
RTVSPost2010Prop31
280
     0
102
RTVSPost2010PropOp31
 70
     1
102
RTVSPost2010Prop32
280
     0
102
RTVSPost2010PropOp32
 70
     1
102
RTVSPost2010Prop33
280
     0
102
RTVSPost2010PropOp33
 70
     1
102
RTVSPost2010Prop34
280
     0
102
RTVSPost2010PropOp34
 70
     1
102
RTVSPost2010Prop35
280
     0
102
RTVSPost2010PropOp35
 70
     1
102
RTVSPost2010Prop36
280
     0
102
RTVSPost2010PropOp36
 70
     1
102
RTVSPost2010Prop37
 90
       50
102
RTVSPost2010PropOp37
 70
     1
102
RTVSPost2010Prop38
140
0.0
102
RTVSPost2010PropOp38
 70
     1
102
RTVSPost2010Prop39
140
1.0
102
RTVSPost2010PropOp39
 70
     1
102
RTVSPost2010Prop40
 90
        0
102
RTVSPost2010PropOp40
 70
     1
102
RTVSPost2010Prop41ColorIndex
 90
       18
102
RTVSPost2010Prop41ColorRGB
 90
        0
102
RTVSPost2010PropOp41
 70
     1
102
RTVSPost2010Prop42
 90
       50
102
RTVSPost2010PropOp42
 70
     1
102
RTVSPost2010Prop43
 90
        3
102
RTVSPost2010PropOp43
 70
     1
102
RTVSPost2010Prop44ColorIndex
 90
        5
102
RTVSPost2010Prop44ColorRGB
 90
      255
102
RTVSPost2010PropOp44
 70
     1
102
RTVSPost2010Prop45
280
     0
102
RTVSPost2010PropOp45
 70
     1
102
RTVSPost2010Prop46
 90
       50
102
RTVSPost2010PropOp46
 70
     1
102
RTVSPost2010Prop47
 90
       50
102
RTVSPost2010PropOp47
 70
     1
102
RTVSPost2010Prop48
 90
       50
102
RTVSPost2010PropOp48
 70
     1
102
RTVSPost2010Prop49
280
     0
102
RTVSPost2010PropOp49
 70
     1
102
RTVSPost2010Prop50
 90
       50
102
RTVSPost2010PropOp50
 70
     1
102
RTVSPost2010Prop51ColorIndex
 90
      256
102
RTVSPost2010Prop51ColorRGB
 90
-16777216
102
RTVSPost2010PropOp51
 70
     0
102
RTVSPost2010Prop52
140
1.0
102
RTVSPost2010PropOp52
 70
     0
102
RTVSPost2010Prop53
 90
        2
102
RTVSPost2010PropOp53
 70
     1
102
RTVSPost2010Prop54
  1
strokes_ogs.tif
102
RTVSPost2010PropOp54
 70
     1
102
RTVSPost2010Prop55
280
     0
102
RTVSPost2010PropOp55
 70
     1
102
RTVSPost2010Prop56
140
1.0
102
RTVSPost2010PropOp56
 70
     1
102
RTVSPost2010Prop57
140
1.0
102
RTVSPost2010PropOp57
 70
     1
102
RTVSPropertyOp0
 70
     1
102
RTVSPropertyOp1
 70
     1
102
RTVSPropertyOp2
 70
     1
102
RTVSPropertyOp3
 70
     1
102
RTVSPropertyOp4
 70
     1
102
RTVSPropertyOp5
 70
     1
102
RTVSPropertyOp6
 70
     1
102
RTVSPropertyOp7
 70
     1
102
RTVSPropertyOp8
 70
     1
102
RTVSPropertyOp9
 70
     1
102
RTVSPropertyOp10
 70
     1
102
RTVSPropertyOp11
 70
     1
102
RTVSPropertyOp12
 70
     1
102
RTVSPropertyOp13
 70
     1
102
RTVSPropertyOp14
 70
     1
102
RTVSPropertyOp15
 70
     1
102
RTVSPropertyOp16
 70
     1
102
RTVSPropertyOp17
 70
     1
102
RTVSPropertyOp18
 70
     1
102
RTVSPropertyOp19
 70
     1
102
RTVSPropertyOp20
 70
     1
102
RTVSPropertyOp21
 70
     1
102
RTVSPropertyOp22
 70
     1
102
RTVSPropertyOp23
 70
     1
102
RTVSPropertyOp24
 70
     1
102
RTVSPropertyOp25
 70
     1
102
RTVSPropertyOp26
 70
     1
102
RTVSPropertyOp27
 70
     1
102
RTVSPropertyOp28
 70
     1
102
RTVSPropertyOp29
 70
     1
102
RTVSPropertyOp30
 70
     1
102
RTVSPropertyOp31
 70
     1
102
RTVSPropertyOp32
 70
     1
102
RTVSPropertyOp33
 70
     1
102
RTVSPropertyOp34
 70
     1
102
RTVSPropertyOp35
 70
     1
102
RTVSPropertyOp36
 70
     1
102
RTVSPropertyOp37
 70
     1
102
RTVSPropertyOp38
 70
     1
102
RTVSPropertyOp39
 70
     1
102
RTVSPropertyOp40
 70
     1
102
RTVSPropertyOp41
 70
     1
102
RTVSPropertyOp42
 70
     1
102
RTVSPropertyOp43
 70
     1
102
RTVSPropertyOp44
 70
     1
102
RTVSPropertyOp45
 70
     1
102
RTVSPropertyOp46
 70
     1
102
RTVSPropertyOp47
 70
     1
102
RTVSPropertyOp48
 70
     1
102
RTVSPropertyOp49
 70
     1
102
RTVSPropertyOp50
 70
     1
102
RTVSPropertyOp51
 70
     0
102
RTVSPropertyOp52
 70
     0
102
RTVSPropertyOp53
 70
     1
102
RTVSPropertyOp54
 70
     1
102
RTVSPropertyOp55
 70
     1
102
RTVSPropertyOp56
 70
     1
102
RTVSPropertyOp57
 70
     1
102
RTVSPropertyOp58
 70
     1
102
RTVSPropertyOp59
 70
     1
102
RTVSPropertyOp60
 70
     1
102
RTVSPropertyOp61
 70
     1
102
RTVSPropertyOp62
 70
     1
  0
XRECORD
  5
7AA7
102
{ACAD_REACTORS
330
7AA6
102
}
330
7AA6
100
AcDbXrecord
280
     1
102
RTVSPost2010Prop28
280
     0
102
RTVSPost2010PropOp28
 70
     1
102
RTVSPost2010Prop29
280
     1
102
RTVSPost2010PropOp29
 70
     1
102
RTVSPost2010Prop30
280
     1
102
RTVSPost2010PropOp30
 70
     1
102
RTVSPost2010Prop31
280
     0
102
RTVSPost2010PropOp31
 70
     1
102
RTVSPost2010Prop32
280
     0
102
RTVSPost2010PropOp32
 70
     1
102
RTVSPost2010Prop33
280
     0
102
RTVSPost2010PropOp33
 70
     1
102
RTVSPost2010Prop34
280
     0
102
RTVSPost2010PropOp34
 70
     1
102
RTVSPost2010Prop35
280
     0
102
RTVSPost2010PropOp35
 70
     1
102
RTVSPost2010Prop36
280
     0
102
RTVSPost2010PropOp36
 70
     1
102
RTVSPost2010Prop37
 90
       50
102
RTVSPost2010PropOp37
 70
     1
102
RTVSPost2010Prop38
140
0.0
102
RTVSPost2010PropOp38
 70
     1
102
RTVSPost2010Prop39
140
1.0
102
RTVSPost2010PropOp39
 70
     1
102
RTVSPost2010Prop40
 90
        0
102
RTVSPost2010PropOp40
 70
     1
102
RTVSPost2010Prop41ColorIndex
 90
       18
102
RTVSPost2010Prop41ColorRGB
 90
        0
102
RTVSPost2010PropOp41
 70
     1
102
RTVSPost2010Prop42
 90
       50
102
RTVSPost2010PropOp42
 70
     1
102
RTVSPost2010Prop43
 90
        3
102
RTVSPost2010PropOp43
 70
     1
102
RTVSPost2010Prop44ColorIndex
 90
        5
102
RTVSPost2010Prop44ColorRGB
 90
      255
102
RTVSPost2010PropOp44
 70
     1
102
RTVSPost2010Prop45
280
     0
102
RTVSPost2010PropOp45
 70
     1
102
RTVSPost2010Prop46
 90
       50
102
RTVSPost2010PropOp46
 70
     1
102
RTVSPost2010Prop47
 90
       50
102
RTVSPost2010PropOp47
 70
     1
102
RTVSPost2010Prop48
 90
       50
102
RTVSPost2010PropOp48
 70
     1
102
RTVSPost2010Prop49
280
     0
102
RTVSPost2010PropOp49
 70
     1
102
RTVSPost2010Prop50
 90
       50
102
RTVSPost2010PropOp50
 70
     1
102
RTVSPost2010Prop51ColorIndex
 90
      256
102
RTVSPost2010Prop51ColorRGB
 90
-16777216
102
RTVSPost2010PropOp51
 70
     0
102
RTVSPost2010Prop52
140
1.0
102
RTVSPost2010PropOp52
 70
     0
102
RTVSPost2010Prop53
 90
        2
102
RTVSPost2010PropOp53
 70
     1
102
RTVSPost2010Prop54
  1
strokes_ogs.tif
102
RTVSPost2010PropOp54
 70
     1
102
RTVSPost2010Prop55
280
     0
102
RTVSPost2010PropOp55
 70
     1
102
RTVSPost2010Prop56
140
1.0
102
RTVSPost2010PropOp56
 70
     1
102
RTVSPost2010Prop57
140
1.0
102
RTVSPost2010PropOp57
 70
     1
102
RTVSPropertyOp0
 70
     1
102
RTVSPropertyOp1
 70
     1
102
RTVSPropertyOp2
 70
     1
102
RTVSPropertyOp3
 70
     1
102
RTVSPropertyOp4
 70
     1
102
RTVSPropertyOp5
 70
     1
102
RTVSPropertyOp6
 70
     1
102
RTVSPropertyOp7
 70
     1
102
RTVSPropertyOp8
 70
     1
102
RTVSPropertyOp9
 70
     1
102
RTVSPropertyOp10
 70
     1
102
RTVSPropertyOp11
 70
     1
102
RTVSPropertyOp12
 70
     1
102
RTVSPropertyOp13
 70
     1
102
RTVSPropertyOp14
 70
     1
102
RTVSPropertyOp15
 70
     1
102
RTVSPropertyOp16
 70
     1
102
RTVSPropertyOp17
 70
     1
102
RTVSPropertyOp18
 70
     1
102
RTVSPropertyOp19
 70
     1
102
RTVSPropertyOp20
 70
     1
102
RTVSPropertyOp21
 70
     1
102
RTVSPropertyOp22
 70
     1
102
RTVSPropertyOp23
 70
     1
102
RTVSPropertyOp24
 70
     1
102
RTVSPropertyOp25
 70
     1
102
RTVSPropertyOp26
 70
     1
102
RTVSPropertyOp27
 70
     1
102
RTVSPropertyOp28
 70
     1
102
RTVSPropertyOp29
 70
     1
102
RTVSPropertyOp30
 70
     1
102
RTVSPropertyOp31
 70
     1
102
RTVSPropertyOp32
 70
     1
102
RTVSPropertyOp33
 70
     1
102
RTVSPropertyOp34
 70
     1
102
RTVSPropertyOp35
 70
     1
102
RTVSPropertyOp36
 70
     1
102
RTVSPropertyOp37
 70
     1
102
RTVSPropertyOp38
 70
     1
102
RTVSPropertyOp39
 70
     1
102
RTVSPropertyOp40
 70
     1
102
RTVSPropertyOp41
 70
     1
102
RTVSPropertyOp42
 70
     1
102
RTVSPropertyOp43
 70
     1
102
RTVSPropertyOp44
 70
     1
102
RTVSPropertyOp45
 70
     1
102
RTVSPropertyOp46
 70
     1
102
RTVSPropertyOp47
 70
     1
102
RTVSPropertyOp48
 70
     1
102
RTVSPropertyOp49
 70
     1
102
RTVSPropertyOp50
 70
     1
102
RTVSPropertyOp51
 70
     0
102
RTVSPropertyOp52
 70
     0
102
RTVSPropertyOp53
 70
     1
102
RTVSPropertyOp54
 70
     1
102
RTVSPropertyOp55
 70
     1
102
RTVSPropertyOp56
 70
     1
102
RTVSPropertyOp57
 70
     1
102
RTVSPropertyOp58
 70
     1
102
RTVSPropertyOp59
 70
     1
102
RTVSPropertyOp60
 70
     1
102
RTVSPropertyOp61
 70
     1
102
RTVSPropertyOp62
 70
     1
  0
XRECORD
  5
7A97
102
{ACAD_REACTORS
330
7A96
102
}
330
7A96
100
AcDbXrecord
280
     1
102
RTVSPost2010Prop28
280
     0
102
RTVSPost2010PropOp28
 70
     1
102
RTVSPost2010Prop29
280
     1
102
RTVSPost2010PropOp29
 70
     1
102
RTVSPost2010Prop30
280
     1
102
RTVSPost2010PropOp30
 70
     1
102
RTVSPost2010Prop31
280
     0
102
RTVSPost2010PropOp31
 70
     1
102
RTVSPost2010Prop32
280
     0
102
RTVSPost2010PropOp32
 70
     1
102
RTVSPost2010Prop33
280
     0
102
RTVSPost2010PropOp33
 70
     1
102
RTVSPost2010Prop34
280
     0
102
RTVSPost2010PropOp34
 70
     1
102
RTVSPost2010Prop35
280
     0
102
RTVSPost2010PropOp35
 70
     1
102
RTVSPost2010Prop36
280
     0
102
RTVSPost2010PropOp36
 70
     1
102
RTVSPost2010Prop37
 90
       50
102
RTVSPost2010PropOp37
 70
     1
102
RTVSPost2010Prop38
140
0.0
102
RTVSPost2010PropOp38
 70
     1
102
RTVSPost2010Prop39
140
1.0
102
RTVSPost2010PropOp39
 70
     1
102
RTVSPost2010Prop40
 90
        0
102
RTVSPost2010PropOp40
 70
     1
102
RTVSPost2010Prop41ColorIndex
 90
       18
102
RTVSPost2010Prop41ColorRGB
 90
        0
102
RTVSPost2010PropOp41
 70
     1
102
RTVSPost2010Prop42
 90
       50
102
RTVSPost2010PropOp42
 70
     1
102
RTVSPost2010Prop43
 90
        3
102
RTVSPost2010PropOp43
 70
     1
102
RTVSPost2010Prop44ColorIndex
 90
        5
102
RTVSPost2010Prop44ColorRGB
 90
      255
102
RTVSPost2010PropOp44
 70
     1
102
RTVSPost2010Prop45
280
     0
102
RTVSPost2010PropOp45
 70
     1
102
RTVSPost2010Prop46
 90
       50
102
RTVSPost2010PropOp46
 70
     1
102
RTVSPost2010Prop47
 90
       50
102
RTVSPost2010PropOp47
 70
     1
102
RTVSPost2010Prop48
 90
       50
102
RTVSPost2010PropOp48
 70
     1
102
RTVSPost2010Prop49
280
     0
102
RTVSPost2010PropOp49
 70
     1
102
RTVSPost2010Prop50
 90
       50
102
RTVSPost2010PropOp50
 70
     1
102
RTVSPost2010Prop51ColorIndex
 90
      256
102
RTVSPost2010Prop51ColorRGB
 90
-16777216
102
RTVSPost2010PropOp51
 70
     0
102
RTVSPost2010Prop52
140
1.0
102
RTVSPost2010PropOp52
 70
     0
102
RTVSPost2010Prop53
 90
        2
102
RTVSPost2010PropOp53
 70
     1
102
RTVSPost2010Prop54
  1
strokes_ogs.tif
102
RTVSPost2010PropOp54
 70
     1
102
RTVSPost2010Prop55
280
     0
102
RTVSPost2010PropOp55
 70
     1
102
RTVSPost2010Prop56
140
1.0
102
RTVSPost2010PropOp56
 70
     1
102
RTVSPost2010Prop57
140
1.0
102
RTVSPost2010PropOp57
 70
     1
102
RTVSPropertyOp0
 70
     1
102
RTVSPropertyOp1
 70
     1
102
RTVSPropertyOp2
 70
     1
102
RTVSPropertyOp3
 70
     1
102
RTVSPropertyOp4
 70
     1
102
RTVSPropertyOp5
 70
     1
102
RTVSPropertyOp6
 70
     1
102
RTVSPropertyOp7
 70
     1
102
RTVSPropertyOp8
 70
     1
102
RTVSPropertyOp9
 70
     1
102
RTVSPropertyOp10
 70
     1
102
RTVSPropertyOp11
 70
     1
102
RTVSPropertyOp12
 70
     1
102
RTVSPropertyOp13
 70
     1
102
RTVSPropertyOp14
 70
     1
102
RTVSPropertyOp15
 70
     1
102
RTVSPropertyOp16
 70
     1
102
RTVSPropertyOp17
 70
     1
102
RTVSPropertyOp18
 70
     1
102
RTVSPropertyOp19
 70
     1
102
RTVSPropertyOp20
 70
     1
102
RTVSPropertyOp21
 70
     1
102
RTVSPropertyOp22
 70
     1
102
RTVSPropertyOp23
 70
     1
102
RTVSPropertyOp24
 70
     1
102
RTVSPropertyOp25
 70
     1
102
RTVSPropertyOp26
 70
     1
102
RTVSPropertyOp27
 70
     1
102
RTVSPropertyOp28
 70
     1
102
RTVSPropertyOp29
 70
     1
102
RTVSPropertyOp30
 70
     1
102
RTVSPropertyOp31
 70
     1
102
RTVSPropertyOp32
 70
     1
102
RTVSPropertyOp33
 70
     1
102
RTVSPropertyOp34
 70
     1
102
RTVSPropertyOp35
 70
     1
102
RTVSPropertyOp36
 70
     1
102
RTVSPropertyOp37
 70
     1
102
RTVSPropertyOp38
 70
     1
102
RTVSPropertyOp39
 70
     1
102
RTVSPropertyOp40
 70
     1
102
RTVSPropertyOp41
 70
     1
102
RTVSPropertyOp42
 70
     1
102
RTVSPropertyOp43
 70
     1
102
RTVSPropertyOp44
 70
     1
102
RTVSPropertyOp45
 70
     1
102
RTVSPropertyOp46
 70
     1
102
RTVSPropertyOp47
 70
     1
102
RTVSPropertyOp48
 70
     1
102
RTVSPropertyOp49
 70
     1
102
RTVSPropertyOp50
 70
     1
102
RTVSPropertyOp51
 70
     0
102
RTVSPropertyOp52
 70
     0
102
RTVSPropertyOp53
 70
     1
102
RTVSPropertyOp54
 70
     1
102
RTVSPropertyOp55
 70
     1
102
RTVSPropertyOp56
 70
     1
102
RTVSPropertyOp57
 70
     1
102
RTVSPropertyOp58
 70
     1
102
RTVSPropertyOp59
 70
     1
102
RTVSPropertyOp60
 70
     1
102
RTVSPropertyOp61
 70
     1
102
RTVSPropertyOp62
 70
     1
  0
XRECORD
  5
7AA1
102
{ACAD_REACTORS
330
7AA0
102
}
330
7AA0
100
AcDbXrecord
280
     1
102
RTVSPost2010Prop28
280
     0
102
RTVSPost2010PropOp28
 70
     1
102
RTVSPost2010Prop29
280
     1
102
RTVSPost2010PropOp29
 70
     1
102
RTVSPost2010Prop30
280
     1
102
RTVSPost2010PropOp30
 70
     1
102
RTVSPost2010Prop31
280
     0
102
RTVSPost2010PropOp31
 70
     1
102
RTVSPost2010Prop32
280
     0
102
RTVSPost2010PropOp32
 70
     1
102
RTVSPost2010Prop33
280
     0
102
RTVSPost2010PropOp33
 70
     1
102
RTVSPost2010Prop34
280
     0
102
RTVSPost2010PropOp34
 70
     1
102
RTVSPost2010Prop35
280
     0
102
RTVSPost2010PropOp35
 70
     1
102
RTVSPost2010Prop36
280
     0
102
RTVSPost2010PropOp36
 70
     1
102
RTVSPost2010Prop37
 90
       50
102
RTVSPost2010PropOp37
 70
     1
102
RTVSPost2010Prop38
140
0.0
102
RTVSPost2010PropOp38
 70
     1
102
RTVSPost2010Prop39
140
1.0
102
RTVSPost2010PropOp39
 70
     1
102
RTVSPost2010Prop40
 90
        0
102
RTVSPost2010PropOp40
 70
     1
102
RTVSPost2010Prop41ColorIndex
 90
       18
102
RTVSPost2010Prop41ColorRGB
 90
        0
102
RTVSPost2010PropOp41
 70
     1
102
RTVSPost2010Prop42
 90
       50
102
RTVSPost2010PropOp42
 70
     1
102
RTVSPost2010Prop43
 90
        3
102
RTVSPost2010PropOp43
 70
     1
102
RTVSPost2010Prop44ColorIndex
 90
        5
102
RTVSPost2010Prop44ColorRGB
 90
      255
102
RTVSPost2010PropOp44
 70
     1
102
RTVSPost2010Prop45
280
     0
102
RTVSPost2010PropOp45
 70
     1
102
RTVSPost2010Prop46
 90
       50
102
RTVSPost2010PropOp46
 70
     1
102
RTVSPost2010Prop47
 90
       50
102
RTVSPost2010PropOp47
 70
     1
102
RTVSPost2010Prop48
 90
       50
102
RTVSPost2010PropOp48
 70
     1
102
RTVSPost2010Prop49
280
     0
102
RTVSPost2010PropOp49
 70
     1
102
RTVSPost2010Prop50
 90
       50
102
RTVSPost2010PropOp50
 70
     1
102
RTVSPost2010Prop51ColorIndex
 90
      256
102
RTVSPost2010Prop51ColorRGB
 90
-16777216
102
RTVSPost2010PropOp51
 70
     0
102
RTVSPost2010Prop52
140
1.0
102
RTVSPost2010PropOp52
 70
     0
102
RTVSPost2010Prop53
 90
        2
102
RTVSPost2010PropOp53
 70
     1
102
RTVSPost2010Prop54
  1
strokes_ogs.tif
102
RTVSPost2010PropOp54
 70
     1
102
RTVSPost2010Prop55
280
     0
102
RTVSPost2010PropOp55
 70
     1
102
RTVSPost2010Prop56
140
1.0
102
RTVSPost2010PropOp56
 70
     1
102
RTVSPost2010Prop57
140
1.0
102
RTVSPost2010PropOp57
 70
     1
102
RTVSPropertyOp0
 70
     1
102
RTVSPropertyOp1
 70
     1
102
RTVSPropertyOp2
 70
     1
102
RTVSPropertyOp3
 70
     1
102
RTVSPropertyOp4
 70
     1
102
RTVSPropertyOp5
 70
     1
102
RTVSPropertyOp6
 70
     1
102
RTVSPropertyOp7
 70
     1
102
RTVSPropertyOp8
 70
     1
102
RTVSPropertyOp9
 70
     1
102
RTVSPropertyOp10
 70
     1
102
RTVSPropertyOp11
 70
     1
102
RTVSPropertyOp12
 70
     1
102
RTVSPropertyOp13
 70
     1
102
RTVSPropertyOp14
 70
     1
102
RTVSPropertyOp15
 70
     1
102
RTVSPropertyOp16
 70
     1
102
RTVSPropertyOp17
 70
     1
102
RTVSPropertyOp18
 70
     1
102
RTVSPropertyOp19
 70
     1
102
RTVSPropertyOp20
 70
     1
102
RTVSPropertyOp21
 70
     1
102
RTVSPropertyOp22
 70
     1
102
RTVSPropertyOp23
 70
     1
102
RTVSPropertyOp24
 70
     1
102
RTVSPropertyOp25
 70
     1
102
RTVSPropertyOp26
 70
     1
102
RTVSPropertyOp27
 70
     1
102
RTVSPropertyOp28
 70
     1
102
RTVSPropertyOp29
 70
     1
102
RTVSPropertyOp30
 70
     1
102
RTVSPropertyOp31
 70
     1
102
RTVSPropertyOp32
 70
     1
102
RTVSPropertyOp33
 70
     1
102
RTVSPropertyOp34
 70
     1
102
RTVSPropertyOp35
 70
     1
102
RTVSPropertyOp36
 70
     1
102
RTVSPropertyOp37
 70
     1
102
RTVSPropertyOp38
 70
     1
102
RTVSPropertyOp39
 70
     1
102
RTVSPropertyOp40
 70
     1
102
RTVSPropertyOp41
 70
     1
102
RTVSPropertyOp42
 70
     1
102
RTVSPropertyOp43
 70
     1
102
RTVSPropertyOp44
 70
     1
102
RTVSPropertyOp45
 70
     1
102
RTVSPropertyOp46
 70
     1
102
RTVSPropertyOp47
 70
     1
102
RTVSPropertyOp48
 70
     1
102
RTVSPropertyOp49
 70
     1
102
RTVSPropertyOp50
 70
     1
102
RTVSPropertyOp51
 70
     0
102
RTVSPropertyOp52
 70
     0
102
RTVSPropertyOp53
 70
     1
102
RTVSPropertyOp54
 70
     1
102
RTVSPropertyOp55
 70
     1
102
RTVSPropertyOp56
 70
     1
102
RTVSPropertyOp57
 70
     1
102
RTVSPropertyOp58
 70
     1
102
RTVSPropertyOp59
 70
     1
102
RTVSPropertyOp60
 70
     1
102
RTVSPropertyOp61
 70
     1
102
RTVSPropertyOp62
 70
     1
  0
XRECORD
  5
7AA9
102
{ACAD_REACTORS
330
7AA8
102
}
330
7AA8
100
AcDbXrecord
280
     1
102
RTVSPost2010Prop28
280
     0
102
RTVSPost2010PropOp28
 70
     1
102
RTVSPost2010Prop29
280
     1
102
RTVSPost2010PropOp29
 70
     1
102
RTVSPost2010Prop30
280
     1
102
RTVSPost2010PropOp30
 70
     1
102
RTVSPost2010Prop31
280
     0
102
RTVSPost2010PropOp31
 70
     1
102
RTVSPost2010Prop32
280
     0
102
RTVSPost2010PropOp32
 70
     1
102
RTVSPost2010Prop33
280
     0
102
RTVSPost2010PropOp33
 70
     1
102
RTVSPost2010Prop34
280
     0
102
RTVSPost2010PropOp34
 70
     1
102
RTVSPost2010Prop35
280
     0
102
RTVSPost2010PropOp35
 70
     1
102
RTVSPost2010Prop36
280
     0
102
RTVSPost2010PropOp36
 70
     1
102
RTVSPost2010Prop37
 90
       50
102
RTVSPost2010PropOp37
 70
     1
102
RTVSPost2010Prop38
140
0.0
102
RTVSPost2010PropOp38
 70
     1
102
RTVSPost2010Prop39
140
1.0
102
RTVSPost2010PropOp39
 70
     1
102
RTVSPost2010Prop40
 90
        0
102
RTVSPost2010PropOp40
 70
     1
102
RTVSPost2010Prop41ColorIndex
 90
       18
102
RTVSPost2010Prop41ColorRGB
 90
        0
102
RTVSPost2010PropOp41
 70
     1
102
RTVSPost2010Prop42
 90
       50
102
RTVSPost2010PropOp42
 70
     1
102
RTVSPost2010Prop43
 90
        3
102
RTVSPost2010PropOp43
 70
     1
102
RTVSPost2010Prop44ColorIndex
 90
        5
102
RTVSPost2010Prop44ColorRGB
 90
      255
102
RTVSPost2010PropOp44
 70
     1
102
RTVSPost2010Prop45
280
     0
102
RTVSPost2010PropOp45
 70
     1
102
RTVSPost2010Prop46
 90
       50
102
RTVSPost2010PropOp46
 70
     1
102
RTVSPost2010Prop47
 90
       50
102
RTVSPost2010PropOp47
 70
     1
102
RTVSPost2010Prop48
 90
       50
102
RTVSPost2010PropOp48
 70
     1
102
RTVSPost2010Prop49
280
     0
102
RTVSPost2010PropOp49
 70
     1
102
RTVSPost2010Prop50
 90
       50
102
RTVSPost2010PropOp50
 70
     1
102
RTVSPost2010Prop51ColorIndex
 90
      256
102
RTVSPost2010Prop51ColorRGB
 90
-16777216
102
RTVSPost2010PropOp51
 70
     0
102
RTVSPost2010Prop52
140
1.0
102
RTVSPost2010PropOp52
 70
     0
102
RTVSPost2010Prop53
 90
        2
102
RTVSPost2010PropOp53
 70
     1
102
RTVSPost2010Prop54
  1
strokes_ogs.tif
102
RTVSPost2010PropOp54
 70
     1
102
RTVSPost2010Prop55
280
     0
102
RTVSPost2010PropOp55
 70
     1
102
RTVSPost2010Prop56
140
1.0
102
RTVSPost2010PropOp56
 70
     1
102
RTVSPost2010Prop57
140
1.0
102
RTVSPost2010PropOp57
 70
     1
102
RTVSPropertyOp0
 70
     1
102
RTVSPropertyOp1
 70
     1
102
RTVSPropertyOp2
 70
     1
102
RTVSPropertyOp3
 70
     1
102
RTVSPropertyOp4
 70
     1
102
RTVSPropertyOp5
 70
     1
102
RTVSPropertyOp6
 70
     1
102
RTVSPropertyOp7
 70
     1
102
RTVSPropertyOp8
 70
     1
102
RTVSPropertyOp9
 70
     1
102
RTVSPropertyOp10
 70
     1
102
RTVSPropertyOp11
 70
     1
102
RTVSPropertyOp12
 70
     1
102
RTVSPropertyOp13
 70
     1
102
RTVSPropertyOp14
 70
     1
102
RTVSPropertyOp15
 70
     1
102
RTVSPropertyOp16
 70
     1
102
RTVSPropertyOp17
 70
     1
102
RTVSPropertyOp18
 70
     1
102
RTVSPropertyOp19
 70
     1
102
RTVSPropertyOp20
 70
     1
102
RTVSPropertyOp21
 70
     1
102
RTVSPropertyOp22
 70
     1
102
RTVSPropertyOp23
 70
     1
102
RTVSPropertyOp24
 70
     1
102
RTVSPropertyOp25
 70
     1
102
RTVSPropertyOp26
 70
     1
102
RTVSPropertyOp27
 70
     1
102
RTVSPropertyOp28
 70
     1
102
RTVSPropertyOp29
 70
     1
102
RTVSPropertyOp30
 70
     1
102
RTVSPropertyOp31
 70
     1
102
RTVSPropertyOp32
 70
     1
102
RTVSPropertyOp33
 70
     1
102
RTVSPropertyOp34
 70
     1
102
RTVSPropertyOp35
 70
     1
102
RTVSPropertyOp36
 70
     1
102
RTVSPropertyOp37
 70
     1
102
RTVSPropertyOp38
 70
     1
102
RTVSPropertyOp39
 70
     1
102
RTVSPropertyOp40
 70
     1
102
RTVSPropertyOp41
 70
     1
102
RTVSPropertyOp42
 70
     1
102
RTVSPropertyOp43
 70
     1
102
RTVSPropertyOp44
 70
     1
102
RTVSPropertyOp45
 70
     1
102
RTVSPropertyOp46
 70
     1
102
RTVSPropertyOp47
 70
     1
102
RTVSPropertyOp48
 70
     1
102
RTVSPropertyOp49
 70
     1
102
RTVSPropertyOp50
 70
     1
102
RTVSPropertyOp51
 70
     0
102
RTVSPropertyOp52
 70
     0
102
RTVSPropertyOp53
 70
     1
102
RTVSPropertyOp54
 70
     1
102
RTVSPropertyOp55
 70
     1
102
RTVSPropertyOp56
 70
     1
102
RTVSPropertyOp57
 70
     1
102
RTVSPropertyOp58
 70
     1
102
RTVSPropertyOp59
 70
     1
102
RTVSPropertyOp60
 70
     1
102
RTVSPropertyOp61
 70
     1
102
RTVSPropertyOp62
 70
     1
  0
XRECORD
  5
35F9
102
{ACAD_REACTORS
330
35F8
102
}
330
35F8
100
AcDbXrecord
280
     1
330
2F64
  0
ENDSEC
  0
EOF
